Song name
# A B C D E F G H I J K L M N O P Q R S T U V W X Y Z

Sell Your Sky - The Rebound tab

----------------------------------------------------------------------------

                          The Rebound by Sell Your Sky

----------------------------------------------------------------------------

www.facebook.com/SellYourSky
sellyoursky.bandcamp.com/album/sell-your-sky
www.myspace.com/sellyoursky

Tuning: Drop C
CGCFAD

D|----------------------------|
A|----------------------------|
F|---------6/7--------6/5\4---|
C|----00-0-x-x--0-000-x-x-x---|
G|----00-0-4/5--0-000-4/5\4---|
C|----00-0------0-000---------|

D|----------------------------|
A|----------------------------|
F|---------6/7--------6/5\4---|
C|----00-0-x-x--0-000-x-x-x---|
G|----00-0-4/5--0-000-4/5\4---|
C|----00-0------0-000---------|

D|----------------------------------------------------|
A|----------------------------------------------------|
F|---------9/11-------9/11\9--------------------------|
C|----00-0-x/x--0-000-x-x-x---55555555/777777777------|
G|----00-0-7/9--0-000-7/9\7---55555555/777777777------|
C|----00-0------0-000---------55555555/777777777------|
Tap to rate this tab
# A B C D E F G H I J K L M N O P Q R S T U V W X Y Z