Song name
# A B C D E F G H I J K L M N O P Q R S T U V W X Y Z

Selvmord - Rbe Under Vand tab

-----------------------------------------------------------------------------
	Selvmord - Råbe Under Vand
-----------------------------------------------------------------------------
Tabbed by: Me:)
Email: madsen3008@yahoo.dk
Please rate and comment:)


e|-------------------------------------------------|
B|-------------------------------------------------|
G|--5--5----5---5--5--7-5---5--5----5---9--5--7--7-|
D|------------3----------3------------3------------|
A|-------------------------------------------------|
E|-------------------------------------------------|

e|-------------------------------------------------|
B|-------------------------------------------------|
G|--5--5----5---5--5--7-5---5--5----5---9--5--7--7-|
D|------------3----------3------------3------------|
A|-------------------------------------------------|
E|-------------------------------------------------|
Tap to rate this tab
 
# A B C D E F G H I J K L M N O P Q R S T U V W X Y Z