Song name
# A B C D E F G H I J K L M N O P Q R S T U V W X Y Z

Semi-gloss - Sunburn Song tab

-2------2------2------2------|
-3-(x4)-2-(x4)-0-(x4)-2-(x4)-|
-2------2------2------2------|  (x2)
-----------------------------|
-----------------------------|
-----------------------------|

-2-0------2------0------2------|
-3-3-(x4)-3-(x4)-3-(x3)-3-(x4)-|
-2-2------2------2------2------| (x2)
-------------------------------|
-------------------------------|
-------------------------------|

-2-3------2------3------2------|
-3-3-(x4)-3-(x4)-3-(x3)-3-(x4)-|
-2-2------2------2------2------| (x2)
-------------------------------|
-------------------------------|
-------------------------------|

-5----------------------|
-3--(x32)---------------|
-2----------------------|
------------------------|
------------------------|
------------------------|

I couldn't figure out the chords but if you do just comment them.

band site: http://www.semi-gloss.com/
Tap to rate this tab
 
# A B C D E F G H I J K L M N O P Q R S T U V W X Y Z