Song name
# A B C D E F G H I J K L M N O P Q R S T U V W X Y Z

Semi Precious Weapons - Magnetic Baby tab

this is kinda an odd song, but I like it 8 )

* = palm muted
b = bend


anyway the intro and verses go by the same power chords.

---------------------------------------------|
---------------------------------------------|
---------------------------------------------|
----10-------6--------3-------5--------------|
----10-------6--------3-------5--------------|
----8--------4--------1-------3--------------|


i would palm mute during the verse but during the begining its just the four chords

then during the pre chorus its the two last chords palm muted getting progressively louder

---------------------------------------------|
---------------------------------------------|
---------------------------------------------|
--3-3-3-3-3-3-3-3-5-5-5-5-5-5-5-5------------|
--3-3-3-3-3-3-3-3-5-5-5-5-5-5-5-5------------|
--1-1-1-1-1-1-1-1-3-3-3-3-3-3-3-3------------|
  * * * * * * * * * * * *

then the chorus :

---------------------------|
---------------------------|
---------------------------|
---10-10-10-10-10-10-10-10-|    X2
---------------------------|
---------------------------|

*this next parts a bit odd so im not positive but i think its goes something like:

------------13b (or 14)-----------10-----|
-----------------------------------------|
-----------------------------------------|
-----------------------------------------|     X2
-----------------------------------------|
---7---------------------7---------------|


then the verse and prechorus again before this lil bridge bit:

---------------------------------------------|
---------------------------------------------|
---------8----------------8------------------|
---5-6-5---5-6-5----5-6-5---5-6-5------------|
---------------------------------------------|
---------------------------------------------|


---------------------------------------------|
---------------------------------------------|
---------7----------------5------------------|
---3-5-3---3-5-3----1-3-1---1-3-1------------|
---------------------------------------------|
---------------------------------------------|

that about wraps up the song.

happy playing and happy new year
Tap to rate this tab
 
# A B C D E F G H I J K L M N O P Q R S T U V W X Y Z