Song name
# A B C D E F G H I J K L M N O P Q R S T U V W X Y Z

Semi Precious Weapons - Semi Precious Weapons tab

-------------------------------------------------------------------------------
			     semi precious weapons - semi precious weapons
-------------------------------------------------------------------------------
Tabbed by:benjamin woodley :)
Email:benjamin_woodley@hotail.com

Tuning:standard

e|---------------------------------------------------------------------------|
B|--2-2-----2-2-----2-2------------------------------------------------------|
G|--2-2-----2-2-----2-2---5~-------------------------------------------------|
D|--2-2-----2-2-----2-2---5~---5~--------------------------------------------|
A|--0-0-----0-0-----0-0---3~---5~--------------------------------------------|
E|3b------3b------3b-----------3~--------------------------------------------|
this is the intro as well as the verses. this is also my first tab so please rate!!!

************************************

| /   slide up
| \   slide down
| h   hammer-on
| p   pull-off
| ~   vibrato
| +   harmonic
| x   Mute note
| b   Bend
| pb  Pre-bend
| br  Bend release
| pbr Pre-bend release
| brb Bend release bend

************************************
Tap to rate this tab
 
# A B C D E F G H I J K L M N O P Q R S T U V W X Y Z