Song name
# A B C D E F G H I J K L M N O P Q R S T U V W X Y Z

Seminex - Schools Out tab

intro/
-------------------------------------------------------
-------------------------------------------------------
-------------------------------------------------------
-------------------------------------------------------
-------------------------------------------------------
---0-5-777-5-0-5-777-5-0-5-777-0-5-777-5-0-------------

riff/1
-------------------------------------------------------
-------------------------------------------------------
---55------------55------------------------------------
---55-3-5-55-3-5-55-3-5-55-----------------------------
---33-----55-----33-----55-----------------------------
----------33------------33-----------------------------


coruse/
------|---|-----|---|---------------------------------
------|---|-----|---|---------------------------------
--777-|-7-|-----|---|---------------------------------
--777-|-7-|-777-|-7-|- 2x  ---------------------------
--555-|-5-|-777-|-7-|---------------------------------
------|---|-555-|-5-|---------------------------------
p.m...     p.m..

riff/1

coruse/
coruse/
riff/1  4x
Tap to rate this tab
# A B C D E F G H I J K L M N O P Q R S T U V W X Y Z