Song name
# A B C D E F G H I J K L M N O P Q R S T U V W X Y Z

Seminole County - Simple Dark tab

Seminole County website:  http://www.seminolecountyonline.com/
I love this song..!!  I couldn't find the tab anywhere online, so I tabbed it 
myself, after learning the song this morning....   
It's my first tab, so feel free to make any corrections or adjustments.

Seminole County: 'Simple Dark' 
Drop D:
Tabbed by Andy Mack
12/06/2009

INTRO & VERSES:

e |----------------------|------------|-----------------|------------------|
B |----------------------|------------|-----------------|-Play 2x's, 2nd---|
G |----------------------|------------|-----------------|-time end on this-|
D |---------2~~~-------2-|----------5-|--------4------3-|------4-----------|
A |------2----------2----|--0----5----|--0---4------3---|----4------3~~~---|
D |--2(x)----------2-----|---5--5-----|----4------3-----|--4------3--------|


PRE-CHORUS:

e |-------------------------|
B |-------------------------|
G |-------------------------|
D |-------4-----------------|
A |-0---4-------------------|
D |---4-------(X)(X)(X)(X)--|


CHORUS:

    "Run away go home...    leave me here alone"                            
e |--------------------------------------------------|
B |--------------------------------------------------|
G |--------------------------------------------------|
D |-2~--X-X--2~~---2-5-----5-5s4-0~---(x)0---X-2-----|
A |-2~--X-X--2~~---2-5-----5-5s4-0~---(x)0---X-2-----|
D |-2~--X-X--2~~---2-5-----5-5s4-0~---(x)0---X-2-----|
                                       

    "Watch my tears fall...    I'm ready to crawl"
e |--------------------------------------------------|
B |--------------------------------------------------|
G |--------------------------------------------------|
D |--X-X--2~~~--2-5--------5-5s4-0~--(x)--0-(x)-2~---|
A |--X-X--2~~~--2-5--------5-5s4-0~--(x)--0-(x)-2~---|
D |--X-X--2~~~--2-5--------5-5s4-0~--(x)--0-(x)-2~---|


    "Under this mouldy...            in my heart"
e |--------------------------------------------------|
B |--------------------------------------------------|
G |--------------------------------------------------|
D |--X-X--2~~~---2-5-------5-5s4-0~--(x)0~--2-4-0-2--|
A |--X-X--2~~~---2-5-------5-5s4-0~--(x)0~--2-4-0-2--|
D |--X-X--2~~~---2-5-------5-5s4-0~--(x)0~--2-4-0-2--|


    "You left me here...     in the simple dark"
e |--------------------------------------------------|
B |--------------------------------------------------|
G |--------------------------------------------------|
D |--X-X--2~~~--2-5----5-5s4-0~--0(x)--0(x)-2~(x)----|
A |--X-X--2~~~--2-5----5-5s4-0~--0(x)--0(x)-2~-(x)---|
D |--X-X--2~~~--2-5----5-5s4-0~--0(x)--0(x)-2~--(x)--|


INTERLUDE:

     "You let me go...      screaming every night"
e |------3----|--------10-----|----------------------|
B |--------3--|-----------10--|------7h8-----7h8p7---|
G |-----------|---------------|--------------------7-|
D |----5------|------7--------|----9-------9---------|
A |--3--------|--3s5----------|--7-------7-----------|
D |-----------|---------------|----------------------|

     "You are nothing...   but the empty part of me"
e |-------3-------------10-----|----------------------|
B |---------3--------------10--|----------------------|
G |------5---------------------|----------------------|
D |----5-------------7---------|---2~~-----2--2-------|
A |--3-----------3s5-----------|---2~~-----2--2-------|
D |----------------------------|---2~~-----2--2-------|


BRIDGE:

    "I was holding on...  something that went right"
    "But I'm alone...      so just run away go home"
e |------------------------------|--------------------|
B |------------------------------|--------------------|
G |-----------------5~~----7~~---|----Repeat 2x's-----|
D |--2~~----5~~-----5~~----7~~---|--------------------|
A |--2~~----5~~-----3~~----5~~---|--------------------|
D |--2~~----5~~------------------|--------------------|

                   (REPEAT CHORUS)

OUTRO:  (last verse of the chorus goes like this...)

   "You left me here...                alone in the simple dark"
e |-----------------------------------------------------------------------|
B |-----------------------------------------------------------------------|
G |-----------------------------------------------------------------------|
D |--X-X--2~~~---2-5-----5-5s4-0~--(x)0~--2-4-0-2~--(x)2~--5~5s4-0--(x)0--|
A |--X-X--2~~~---2-5-----5-5s4-0~--(x)0~--2-4-0-2~--(x)2~--5~5s4-0--(x)0--|
D |--X-X--2~~~---2-5-----5-5s4-0~--(x)0~--2-4-0-2~--(x)2~--5~5s4-0--(x)0--|


That's it..!!  Not 100% accurate, perhaps, but sounds pretty darn close to me.  lol    
Enjoy, and feel free to correct any of it.
Tap to rate this tab
 
# A B C D E F G H I J K L M N O P Q R S T U V W X Y Z