Guitaretab - guitar tabs
Song name
# A B C D E F G H I J K L M N O P Q R S T U V W X Y Z

Send More Paramedics - The Hordes tab

Band: Send More Paramedics
Song: The Hordes
Albm: A Feast For the Fallen

KEY:
* = palm mute
~ = vibrato
ph = pinch harmonic
/ = slide up
\ = slide down
h = hammer on
p = pull off

INTRO
|------------------------------|
|------------------------------|
|------------------------------|
|---0--------------------------|
|---0-------12-11-6~~~~~~~~----|
|---0----/12-------------------|

|----------------------------------------|
|----------------------------------------|
|-----------------------*-*-*------------|
|---0-------------------8-7-0-2h3p2p0--1-|
|---0-------12-11-6~~~--8-7-0----------1-|
|---0----/12------------8-7-0----------1-|

|------------------------------|
|------------------------------|
|------------------------------|
|---0--------10-13-8~~~~~~~----|
|---0-----12-12-11-6~~~~~~~----|
|---0----/12-------------------|

|------------------------------|
|------------------------------|
|------------------------------|
|---0--------10-13-8~~~~~~~----|
|---0-----12-12-11-6~~~~~~~----|
|---0----/12-------------------|

|------------------------------------|
|------------------------------------|
|------------------------------------|
|------------------------------------|
|---*-*-*-*-*-*-*-*-*-*-*-*-********-|
|---0-0-0-0-0-0-0-0-0-0-0-0-00000000-|  x4

|-------------------------------------------------------------------------|
|-------------------------------------------------------------------------|
|--------------------------------7-8-----------15\14-14-14--14-------13ph-|
|--------------------------5h6p5-7-8---------------------------13---------|
|---*-*-*-*-*-*-*-*-3/4--*-------5-6--*-*-*-*--13\12-12-12--------12------|
|---0-0-0-0-0-0-0-0-3/4--0------------0-0-0-0-----------------------------|

|-------------------------------------|
|-------------------------------------|
|--------------------------------7-8--|
|--------------------------5h6p5-7-8--|
|---*-*-*-*-*-*-*-*-3/4--*-------5-6--|
|---0-0-0-0-0-0-0-0-3/4--0------------|

|----------------------------------------------|
|----------------------------------------------|
|------------15\14-14-14---17-17-17--13-13-13--|
|----------------------------------------------|
|---*-*-*-*--13\12-12-12---15-15-15--11-11-11--|
|---0-0-0-0------------------------------------|

|------------------------------------|
|------------------------------------|
|------------------------------------|
|------------------------------------|
|---*-*-*-*-*-*-*-*-*-*-*-*-********-|
|---0-0-0-0-0-0-0-0-0-0-0-0-00000000-|  x3

|--------------------------|
|--------------------------|
|-------------------8------|
|-------------------7------|
|---*-*-*-*-*-*-*-*-6------|
|---0-0-0-0-0-0-0-0--------|

SOLO
|-14p13-14p13-14p13-16p13-14p13-14p13-14p13-11-14p13-14p13-14p13-19-16p13--|
|--------------------------------------------------------------------------|
|--------------------------------------------------------------------------|
|--------------------------------------------------------------------------|
|--------------------------------------------------------------------------|
|--------------------------------------------------------------------------|

Or something around them lines. Lots of bends follow.
And then tap from 24th fret down with your pick.

VERSE
(first half played underneath solo)
|----------------------------------------------------------|
|----------------------------------------------------------|
|----------------------------------------------------------|
|-------------------------------------------------------4--|
|---*-*-*-*-*-*-*-*-*-*-----*-*-*-*-*-*-*-*-*-*-----*-*-4--|
|---0-0-0-0-0-0-0-0-0-0-1p0-0-0-0-0-0-0-0-0-0-0-1p0-0-0-4--|

|--------------------------------------------------------|
|--------------------------------------------------------|
|--------------------------------------------------------|
|-----------------------------------------------1--4--1--|
|---*-*-*-*-*-*-*-*-*-*-----*-*-*-*-*-*-*-*-*-*-1--4--1--|
|---0-0-0-0-0-0-0-0-0-0-1p0-0-0-0-0-0-0-0-0-0-0-1--4--1--|

|----------------------------------------------------------|
|----------------------------------------------------------|
|----------------------------------------------------------|
|-------------------------------------------------------4--|
|---*-*-*-*-*-*-*-*-*-*-----*-*-*-*-*-*-*-*-*-*-----*-*-4--|
|---0-0-0-0-0-0-0-0-0-0-1p0-0-0-0-0-0-0-0-0-0-0-1p0-0-0-4--|

|----------------------------------------------------------|
|----------------------------------------------------------|
|----------------------------------------------------------|
|-----------------------------------------------6----5-----|
|---*-*-*-*-*-*-*-*-*-*-----*-*-*-*-*-*-*-*-*-*-6----5-----|
|---0-0-0-0-0-0-0-0-0-0-1p0-0-0-0-0-0-0-0-0-0-0-6----5-----|
[ Tab from: http://www.guitaretab.com/s/send-more-paramedics/108117.html ]
|----------------------------------------------------------|
|----------------------------------------------------------|
|----------------------------------------------------------|
|-------------------------------------------------------5--|
|---*-*-*-*-*-*-*-*-*-*-----*-*-*-*-*-*-*-*-*-*-----*-*-5--|
|---2-2-2-2-2-2-2-2-2-2-3p2-2-2-2-2-2-2-2-2-2-2-3p2-2-2-5--|

|----------------------------------------------------------|
|----------------------------------------------------------|
|----------------------------------------------------------|
|-----------------------------------------------6--5--1----|
|---*-*-*-*-*-*-*-*-*-*-----*-*-*-*-*-*-*-*-*-*-6--5--1----|
|---2-2-2-2-2-2-2-2-2-2-3p2-2-2-2-2-2-2-2-2-2-2-6--5--1----|

BRIDGE
|------------------------------------------------------------------------|
|------------------------------------------------------------------------|
|------------------------------------------------------------------------|
|-----------7\8---------------10\9---------------13\12-------------------|
|--*--***-*-5\6-*-*-*-*-***-*-8-\7-*-*-*-*-***-*-11\10-*-*-*-*-7h8p7-----|
|--0--000-0-----0-0-0-0-000-0------0-0-0-0-000-0-------0-0-0-0------8-7--|

|---------|
|---------|
|---------|
|-0--1--4-|
|-0--1--4-|
|-0--1--4-| this bit follows from the above part. cudnt fit it in

|---------------------------------------------------------------------------|
|---------------------------------------------------------------------------|
|---------------------------------------------------------------------------|
|-----------7\8---------------10\9---------------13\12-------8---7--6h7p----|
|--*--***-*-5\6-*-*-*-*-***-*-8-\7-*-*-*-*-***-*-11\10-*---7-------------7--|
|--0--000-0-----0-0-0-0-000-0------0-0-0-0-000-0-------0-8------7---------6-|

|------------------------------------------------------------------------|
|------------------------------------------------------------------------|
|------------------------------------------------------------------------|
|-----------7\8---------------10\9---------------13\12-------------------|
|--*--***-*-5\6-*-*-*-*-***-*-8-\7-*-*-*-*-***-*-11\10-*-*-*-*-7h8p7-----|
|--0--000-0-----0-0-0-0-000-0------0-0-0-0-000-0-------0-0-0-0------8-7--|

|----------|
|----------|
|----------|
|-0--1--4--|
|-0--1--4--|
|-0--1--4--|

|------------------------------------------------------------------------|
|------------------------------------------------------------------------|
|------------------------------------------------------------------------|
|-----------7\8---------------10\9---------------13\12------7------------|
|--*--***-*-5\6-*-*-*-*-***-*-8-\7-*-*-*-*-***-*-11\10-*----6------------|
|--0--000-0-----0-0-0-0-000-0------0-0-0-0-000-0-------0-8---------------|

Back into the verse.

CHORUS
|--------------------------------------------------------------|
|--------------------------------------------------------------|
|--7--------------7--------------5--------------2--------------|
|--6--------------6--------------4--------------1--------------|
|--5--------------x--------------x--------------x--------------|
|--0--------------6--------------4--------------1--------------|


|--0-----------------------------------------------------------|
|--6-----------------------------------------------------------|
|--6-----------------------------5--------------8--------------|
|--0--------------12-------------4--------------7--------------|
|--0--------------11-------------x--------------6--------------|
|--0--------------10-------------4-----------------------------|

OUTRO
|--------------------------------------------|
|-----------------------------------------5--|
|---------------14----------------5-----3----|
|-------7---------------13----7-6-----0------|
|-----5-------12------11----0----------------|
|---0-------0-------0------------------------|

|----------------------------------------------------|
|----------------------------------------------------|
|---------------14----------------5-----4h5p4-3h4p3--|
|-------7---------------13----7-6-----0--------------|
|-----5-------12------11----0------------------------|
|---0-------0-------0--------------------------------|

|---------------------------------------------|
|-----------------------------------------11--|
|---------------14----------------5-----9-----|
|-------7---------------13----7-6-----0-------|
|-----5-------12------11----0-----------------|
|---0-------0-------0-------------------------|

|---------------------------------|
|---------------------------------|
|---------------14----------------|
|-------7---------------13--------|
|-----5-------12------11----------|
|---0-------0-------0-------------|

That's it.

Go to www.sendmoreparamedics.com
Cos it's awesome.

tabbed by owen_b123@hotmail.com
Related for The Hordes tab
×
The Hordes