Guitaretab - guitar tabs
Song name
# A B C D E F G H I J K L M N O P Q R S T U V W X Y Z

Send More Paramedics - Zombified tab

----------------------------------------------------------------------------
	         Zombified - Send More Paramedics
----------------------------------------------------------------------------
Tabbed by: Sam Johnson
Email: elcapitan@charter.net

Tuning: Drop D, then  step down

   n/h = natural harmonic
   x   = left hand mute
   w/b = whammy bar (> = quick dip) (\ = dive)
   p/h = pinch harmonic

            PM          PM---|           PM-------|          PM---|
Eb |--------------------------------|--------------------------------|
Bb |--------------------------------|--------------------------------|
Gb |7-----------7---------------7---|----------------7---------------|
Db |7-----------7---------------7---|----------------7---------------|
Ab |5-------5---5-------5---5---5---|----5---5---5---5-------5---5---|
Db |--------------------------------|--------------------------------|

        PM              PM---|           PM---|          PM
Eb |--------------------------------|--------------------------------|
Bb |--------------------------------|--------------------------------|
Gb |7-------7-------7-----------7---|------------7-----------7-------|
Db |7-------7-------7-----------7---|------------7-----------7-------|
Ab |5---5---5-------5---5---5---5---|----5---5---5-------5---5-------|
Db |--------------------------------|--------------------------------|

Eb |--------------------------------|--------------------------------|
Bb |--------------------------------|--------------------------------|
Gb |--------------------------------|--------------------------------|
Db |--------------------------------|------------3-------------------|
Ab |--------5---4-------0---4---3---|----0---2-----------------------|
Db |0-------------------------------|----------------3-------0h1-----|

                PM-|        PM           PM---|          PM
Eb |--------------------------------|--------------------------------|
Bb |--------------------------------|--------------------------------|
Gb |--------------------------------|--------------------------------|
Db |--------------------------------|--------------------------------|
Ab |--------------------------------|--------------------------------|
Db |--1p0---0---0-0-6-/-7---0---10--|----0-0-0---9-------0---8-------|

Eb |--------------------------------|--------------------------------|
Bb |--------------------------------|--------------------------------|
Gb |--------------------------------|--------------------------------|
Db |--------------------------------|------------3-------------------|
Ab |--------5---4-------0---4---3---|----0---2-----------------------|
Db |0-------------------------------|----------------3-------0h1-----|

                PM-|        PM           PM---|          PM
Eb |--------------------------------|--------------------------------|
Bb |--------------------------------|--------------------------------|
Gb |--------------------------------|--------------------------------|
Db |--------------------------------|--------------------------------|
Ab |--------------------------------|--------------------------------|
Db |--1p0---0---0-0-6-/-7---0---10--|----0-0-0---9-------0---8-------|

    PM---------------------------------------------------------------|
Eb |--------------------------------|--------------------------------|
Bb |--------------------------------|--------------------------------|
Gb |--------------------------------|--------------------------------|
Db |--------------------------------|--------------------------------|
Ab |------------------------7-7-7-7-|------------------------6-6-6-6-|
Db |0-0-0-0-5-5-5-5-4-4-4-4---------|7-7-7-7-6-6-6-6-5-5-5-5---------|

    PM---------------------------------------------------------------|
Eb |--------------------------------|--------------------------------|
Bb |--------------------------------|--------------------------------|
Gb |--------------------------------|--------------------------------|
Db |--------------------------------|--------------------------------|
Ab |------------------------7-7-7-7-|------------------------6-6-6-6-|
Db |0-0-0-0-5-5-5-5-4-4-4-4---------|7-7-7-7-6-6-6-6-5-5-5-5---------|

    PM---------------------------------------------------------------|
Eb |--------------------------------|--------------------------------|
Bb |--------------------------------|--------------------------------|
Gb |--------------------------------|--------------------------------|
Db |--------------------------------|--------------------------------|
Ab |------------------------7-7-7-7-|------------------------6-6-6-6-|
Db |0-0-0-0-5-5-5-5-4-4-4-4---------|7-7-7-7-6-6-6-6-5-5-5-5---------|

    PM---------------------------------------------------------------|
Eb |--------------------------------|--------------------------------|
Bb |--------------------------------|--------------------------------|
Gb |--------------------------------|--------------------------------|
Db |--------------------------------|--------------------------------|
Ab |------------------------7-7-7-7-|------------------------6-6-6-6-|
Db |0-0-0-0-5-5-5-5-4-4-4-4---------|7-7-7-7-6-6-6-6-5-5-5-5---------|

    PM---------------------------------------------------------------|
Eb |--------------------------------|--------------------------------|
Bb |--------------------------------|--------------------------------|
Gb |--------------------------------|--------------------------------|
Db |--------------------------------|--------------------------------|
Ab |------------------------7-7-7-7-|------------------------6-6-6-6-|
Db |0-0-0-0-5-5-5-5-4-4-4-4---------|7-7-7-7-6-6-6-6-5-5-5-5---------|

    hold                                                 PM-------|
Eb |0-------------------------------|--------------------------------|
Bb |9-------------------------------|--------------------------------|
Gb |11------------------------------|--------------------------------|
Db |0-------------------------------|--------------------------------|
Ab |0-------------------------------|--------------------------------|
Db |0-------------------------------|--------------------0---0---0---|

    hold                                                 PM-------|
Eb |0-------------------------------|--------------------------------|
Bb |0-------------------------------|--------------------------------|
Gb |3-------------------------------|--------------------------------|
Db |2-------------------------------|--------------------------------|
Ab |2-------------------------------|--------------------------------|
Db |x-------------------------------|--------------------0---0---0---|

    hold                                                 PM-------|
Eb |0-------------------------------|--------------------------------|
Bb |0-------------------------------|--------------------------------|
Gb |x-------------------------------|--------------------------------|
Db |4-------------------------------|--------------------------------|
Ab |4-------------------------------|--------------------------------|
Db |4-------------------------------|--------------------0---0---0---|

    hold                                                 PM-------|
Eb |0-------------------------------|--------------------------------|
Bb |0-------------------------------|--------------------------------|
Gb |x-------------------------------|--------------------------------|
Db |8-------------------------------|--------------------------------|
Ab |8-------------------------------|--------------------------------|
Db |8-------------------------------|--------------------0---0---0---|

    hold                                                 PM-------|
Eb |0-------------------------------|--------------------------------|
Bb |9-------------------------------|--------------------------------|
Gb |11------------------------------|--------------------------------|
Db |0-------------------------------|--------------------------------|
Ab |0-------------------------------|--------------------------------|
Db |0-------------------------------|--------------------0---0---0---|

    hold                                                 PM-------|
Eb |0-------------------------------|--------------------------------|
Bb |0-------------------------------|--------------------------------|
Gb |3-------------------------------|--------------------------------|
Db |2-------------------------------|--------------------------------|
Ab |2-------------------------------|--------------------------------|
Db |x-------------------------------|--------------------0---0---0---|

    hold                             n/h         w/b-----------------|
Eb |0-------------------------------|--------------------------------|
Bb |0-------------------------------|--------------------------------|
Gb |x-------------------------------|4----------->--->---\-----------|
Db |4-------------------------------|--------------------------------|
Ab |4-------------------------------|--------------------------------|
Db |4-------------------------------|--------------------------------|

    hold
Eb |0-------------------------------|--------------------------------|
Bb |0-------------------------------|--------------------------------|
Gb |x-------------------------------|--------------------------------|
Db |8-------------------------------|--------------------------------|
Ab |8-------------------------------|--------------------------------|
Db |8-------------------------------|--------------------------------|

    PM------------------------------|hold
Eb |--------------------------------|--------------------------------|
Bb |--------------------------------|--------------------------------|
Gb |--------------------------------|--------------------------------|
Db |--------------------------------|--------------------------------|
Ab |------------------------7-7-7-7-|--------------------------------|
Db |0-0-0-0-5-5-5-5-4-4-4-4---------|7-------------------------------|

    PM---------------------------------------------------------------|
Eb |--------------------------------|--------------------------------|
Bb |--------------------------------|--------------------------------|
Gb |--------------------------------|--------------------------------|
Db |--------------------------------|--------------------------------|
Ab |------------------------7-7-7-7-|------------------------6-6-6-6-|
Db |0-0-0-0-5-5-5-5-4-4-4-4---------|7-7-7-7-6-6-6-6-5-5-5-5---------|

    PM---------------------------------------------------------------|
Eb |--------------------------------|--------------------------------|
Bb |--------------------------------|--------------------------------|
Gb |--------------------------------|--------------------------------|
Db |--------------------------------|--------------------------------|
Ab |------------------------7-7-7-7-|------------------------6-6-6-6-|
Db |0-0-0-0-5-5-5-5-4-4-4-4---------|7-7-7-7-6-6-6-6-5-5-5-5---------|

    PM---------------------------------------------------------------|
Eb |--------------------------------|--------------------------------|
Bb |--------------------------------|--------------------------------|
Gb |--------------------------------|--------------------------------|
Db |--------------------------------|--------------------------------|
Ab |------------------------7-7-7-7-|------------------------6-6-6-6-|
Db |0-0-0-0-5-5-5-5-4-4-4-4---------|7-7-7-7-6-6-6-6-5-5-5-5---------|

    PM---------------------------------------------------------------|
Eb |--------------------------------|--------------------------------|
Bb |--------------------------------|--------------------------------|
Gb |--------------------------------|--------------------------------|
Db |--------------------------------|--------------------------------|
Ab |------------------------7-7-7-7-|------------------------6-6-6-6-|
Db |0-0-0-0-5-5-5-5-4-4-4-4---------|7-7-7-7-6-6-6-6-5-5-5-5---------|

    PM---------------------------------------------------------------|
Eb |--------------------------------|--------------------------------|
Bb |--------------------------------|--------------------------------|
Gb |--------------------------------|--------------------------------|
Db |--------------------------------|--------------------------------|
Ab |------------------------7-7-7-7-|------------------------6-6-6-6-|
Db |0-0-0-0-5-5-5-5-4-4-4-4---------|7-7-7-7-6-6-6-6-5-5-5-5---------|

            PM--|           PM
Eb |--------------------------------|--------------------------------|
Bb |--------------------------------|--------------------------------|
Gb |--------------------------------|--------------------------------|
Db |--------------------------------|--------------------------------|
Ab |----------------5-------0---4---|----4-------4-----------6---7---|
Db |0-------0---0-------------------|----------------8---7-----------|

    PM-----------|
Eb |--------------------------------|--------------------------------|
Bb |--------------------------------|--------------------------------|
Gb |--------------------------------|--------------------------------|
Db |--------------------------------|----9---7---8-----------7-------|
Ab |----------------5-------0---4---|----------------7-----------6---|
Db |0---0-0-0---0-------------------|--------------------8-----------|
[ Tab from: http://www.guitaretab.com/s/send-more-paramedics/62785.html ]
            PM--|           PM
Eb |--------------------------------|--------------------------------|
Bb |--------------------------------|--------------------------------|
Gb |--------------------------------|--------------------------------|
Db |--------------------------------|--------------------------------|
Ab |----------------5-------0---4---|----4-------4-----------6---7---|
Db |0-------0---0-------------------|----------------8---7-----------|

    PM-----------|
Eb |--------------------------------|--------------------------------|
Bb |--------------------------------|--------------------------------|
Gb |--------------------------------|--------------------------------|
Db |--------------------------------|----9---7---8-----------7-------|
Ab |----------------5-------0---4---|----------------7-----------6---|
Db |0---0-0-0---0-------------------|--------------------8-----------|

            PM--|           PM
Eb |--------------------------------|--------------------------------|
Bb |--------------------------------|--------------------------------|
Gb |--------------------------------|--------------------------------|
Db |--------------------------------|--------------------------------|
Ab |----------------5-------0---4---|----4-------4-----------6---7---|
Db |0-------0---0-------------------|----------------8---7-----------|

    PM-----------|
Eb |--------------------------------|--------------------------------|
Bb |--------------------------------|--------------------------------|
Gb |--------------------------------|--------------------------------|
Db |--------------------------------|----9---7---8-----------7-------|
Ab |----------------5-------0---4---|----------------7-----------6---|
Db |0---0-0-0---0-------------------|--------------------8-----------|

            PM--|           PM
Eb |--------------------------------|--------------------------------|
Bb |--------------------------------|--------------------------------|
Gb |--------------------------------|--------------------------------|
Db |--------------------------------|--------------------------------|
Ab |----------------5-------0---4---|----4-------4-----------6---7---|
Db |0-------0---0-------------------|----------------8---7-----------|

    PM-----------|
Eb |--------------------------------|--------------------------------|
Bb |--------------------------------|--------------------------------|
Gb |--------------------------------|--------------------------------|
Db |--------------------------------|----9---7---8-----------7-------|
Ab |----------------5-------0---4---|----------------7-----------6---|
Db |0---0-0-0---0-------------------|--------------------8-----------|

    PM------------------------------|hold
Eb |--------------------------------|--------------------------------|
Bb |--------------------------------|--------------------------------|
Gb |--------------------------------|--------------------------------|
Db |--------------------------------|--------------------------------|
Ab |------------------------7-7-7-7-|--------------------------------|
Db |0-0-0-0-5-5-5-5-4-4-4-4---------|7-------------------------------|

    PM---------------------------------------------------------------|
Eb |--------------------------------|--------------------------------|
Bb |--------------------------------|--------------------------------|
Gb |--------------------------------|--------------------------------|
Db |--------------------------------|--------------------------------|
Ab |------------------------7-7-7-7-|------------------------6-6-6-6-|
Db |0-0-0-0-5-5-5-5-4-4-4-4---------|7-7-7-7-6-6-6-6-5-5-5-5---------|

    PM---------------------------------------------------------------|
Eb |--------------------------------|--------------------------------|
Bb |--------------------------------|--------------------------------|
Gb |--------------------------------|--------------------------------|
Db |--------------------------------|--------------------------------|
Ab |------------------------7-7-7-7-|------------------------6-6-6-6-|
Db |0-0-0-0-5-5-5-5-4-4-4-4---------|7-7-7-7-6-6-6-6-5-5-5-5---------|

    PM---------------------------------------------------------------|
Eb |--------------------------------|--------------------------------|
Bb |--------------------------------|--------------------------------|
Gb |--------------------------------|--------------------------------|
Db |--------------------------------|--------------------------------|
Ab |------------------------7-7-7-7-|------------------------6-6-6-6-|
Db |0-0-0-0-5-5-5-5-4-4-4-4---------|7-7-7-7-6-6-6-6-5-5-5-5---------|

    PM---------------------------------------------------------------|
Eb |--------------------------------|--------------------------------|
Bb |--------------------------------|--------------------------------|
Gb |--------------------------------|--------------------------------|
Db |--------------------------------|--------------------------------|
Ab |------------------------7-7-7-7-|------------------------6-6-6-6-|
Db |0-0-0-0-5-5-5-5-4-4-4-4---------|7-7-7-7-6-6-6-6-5-5-5-5---------|

    PM---------------------------------------------------------------|
Eb |--------------------------------|--------------------------------|
Bb |--------------------------------|--------------------------------|
Gb |--------------------------------|--------------------------------|
Db |--------------------------------|--------------------------------|
Ab |------------------------7-7-7-7-|------------------------6-6-6-6-|
Db |0-0-0-0-5-5-5-5-4-4-4-4---------|7-7-7-7-6-6-6-6-5-5-5-5---------|

    hold                                                 PM-------|
Eb |0-------------------------------|--------------------------------|
Bb |9-------------------------------|--------------------------------|
Gb |11------------------------------|--------------------------------|
Db |0-------------------------------|--------------------------------|
Ab |0-------------------------------|--------------------------------|
Db |0-------------------------------|--------------------0---0---0---|

    hold                                                 PM-------|
Eb |0-------------------------------|--------------------------------|
Bb |0-------------------------------|--------------------------------|
Gb |3-------------------------------|--------------------------------|
Db |2-------------------------------|--------------------------------|
Ab |2-------------------------------|--------------------------------|
Db |x-------------------------------|--------------------0---0---0---|

    hold                                                 PM-------|
Eb |0-------------------------------|--------------------------------|
Bb |0-------------------------------|--------------------------------|
Gb |x-------------------------------|--------------------------------|
Db |4-------------------------------|--------------------------------|
Ab |4-------------------------------|--------------------------------|
Db |4-------------------------------|--------------------0---0---0---|

    hold                                                 PM-------|
Eb |0-------------------------------|--------------------------------|
Bb |0-------------------------------|--------------------------------|
Gb |x-------------------------------|--------------------------------|
Db |8-------------------------------|--------------------------------|
Ab |8-------------------------------|--------------------------------|
Db |8-------------------------------|--------------------0---0---0---|

    hold                                                 PM-------|
Eb |0-------------------------------|--------------------------------|
Bb |9-------------------------------|--------------------------------|
Gb |11------------------------------|--------------------------------|
Db |0-------------------------------|--------------------------------|
Ab |0-------------------------------|--------------------------------|
Db |0-------------------------------|--------------------0---0---0---|

    hold                                                 PM-------|
Eb |0-------------------------------|--------------------------------|
Bb |0-------------------------------|--------------------------------|
Gb |3-------------------------------|--------------------------------|
Db |2-------------------------------|--------------------------------|
Ab |2-------------------------------|--------------------------------|
Db |x-------------------------------|--------------------0---0---0---|

    hold                             n/h         w/b-----------------|
Eb |0-------------------------------|--------------------------------|
Bb |0-------------------------------|--------------------------------|
Gb |x-------------------------------|4----------->--->---\-----------|
Db |4-------------------------------|--------------------------------|
Ab |4-------------------------------|--------------------------------|
Db |4-------------------------------|--------------------------------|

    hold
Eb |0-------------------------------|--------------------------------|
Bb |0-------------------------------|--------------------------------|
Gb |x-------------------------------|--------------------------------|
Db |8-------------------------------|--------------------------------|
Ab |8-------------------------------|--------------------------------|
Db |8-------------------------------|----------------15\-------------|

                                         PM---|
Eb |--------------------------------|--------------------------------|
Bb |--------------------------------|--------------------------------|
Gb |--------------------------------|--------------------------------|
Db |--------4-----------------------|----------------------------6---|
Ab |------------3-----------6---5---|------------4---3-------5-------|
Db |0-------------------3-----------|----4---3-----------------------|

                    PM---|               n/h-----|       PM  p/h
Eb |--------------------------------|--------------------------------|
Bb |--------------------------------|--------------------------------|
Gb |--------------------------------|------------------------4-------|
Db |4-------------------------------|--------5---5-------------------|
Ab |--------------------2-------3---|----4---------------2-----------|
Db |----7---0-------3-------4-------|--------------------------------|

                                         PM---|
Eb |--------------------------------|--------------------------------|
Bb |--------------------------------|--------------------------------|
Gb |--------------------------------|--------------------------------|
Db |--------4-----------------------|----------------------------6---|
Ab |------------3-----------6---5---|------------4---3-------5-------|
Db |0-------------------3-----------|----4---3-----------------------|

                    PM---|               n/h-----|       PM  p/h
Eb |--------------------------------|--------------------------------|
Bb |--------------------------------|--------------------------------|
Gb |--------------------------------|------------------------4-------|
Db |4-------------------------------|--------5---5-------------------|
Ab |--------------------2-------3---|----4---------------2-----------|
Db |----7---0-------3-------4-------|--------------------------------|

                                         PM---|
Eb |--------------------------------|--------------------------------|
Bb |--------------------------------|--------------------------------|
Gb |--------------------------------|--------------------------------|
Db |--------4-----------------------|----------------------------6---|
Ab |------------3-----------6---5---|------------4---3-------5-------|
Db |0-------------------3-----------|----4---3-----------------------|

                    PM---|               n/h-----|       PM  p/h
Eb |--------------------------------|--------------------------------|
Bb |--------------------------------|--------------------------------|
Gb |--------------------------------|------------------------4-------|
Db |4-------------------------------|--------5---5-------------------|
Ab |--------------------2-------3---|----4---------------2-----------|
Db |----7---0-------3-------4-------|--------------------------------|

                                         PM---|
Eb |--------------------------------|--------------------------------|
Bb |--------------------------------|--------------------------------|
Gb |--------------------------------|--------------------------------|
Db |--------4-----------------------|----------------------------6---|
Ab |------------3-----------6---5---|------------4---3-------5-------|
Db |0-------------------3-----------|----4---3-----------------------|

                    PM---|               n/h-----|       PM  p/h
Eb |--------------------------------|--------------------------------|
Bb |--------------------------------|--------------------------------|
Gb |--------------------------------|------------------------4-------|
Db |4-------------------------------|--------5---5-------------------|
Ab |--------------------2-------3---|----4---------------2-----------|
Db |----7---0-------3-------4-------|--------------------------------|

    PM------------------------------|
Eb |--------------------------------|--------------------------------|
Bb |--------------------------------|--------------------------------|
Gb |--------------------------------|--------------------------------|
Db |--------------------------------|--------------------------------|
Ab |--------------------------------|0-------------------------------|
Db |0-0-0-0-0-0-0-0-0-0-0-0-0-0-0-0-|0-------------------------------|
Related for Zombified tab