Song name
# A B C D E F G H I J K L M N O P Q R S T U V W X Y Z

Seneca - Sending Home Photos Of Myself tab

I know this isn't perfect, I did my best.
Also, this isn't the whole song, but it's most of it.
I'll probably update this when I perfect the rest.


Gtr I (C G C F A D) - 'Guitar I'

   4/4
    Gtr I
    PM----|                 PM----|
    |----------------------3----------------------|
    S S S S S S S S S S S S S S S S S S S S S S S S  3x
||---------------------------------------------------||
||o-------------------------------------------------o||
||---------------------------------------------------||
||---------------------------------------------------||
||o-0-0-0-0-----------------0-0-0-0-----------------o||
||--0-0-0-0-----------------0-0-0-0------------------||


  PM----|                 PM----|
  |-------------------3-------------------|
  S S S S S S S S S S S S S S S S S S S S Q
|--------------------------------------------|
|--------------------------------------------|
|--------------------------------------------|
|--------------------------------------------|
|-0-0-0-0-----------------0-0-0-0------------|
|-0-0-0-0-----------------0-0-0-0---------8\-|


    Q=130
    |-3-|           |-3-|
    S S S  E    E E S S S  E    E E     4x
||--------------------------------------||
||o------------------------------------o||
||--------[5]b7r==========[5]b7r========||
||--0-5-7-----------0-5-7---------------||
||o------------------------------------o||
||--------------------------------------||


 2/4
  E Q.
|---------|
|---------|
|---------|
|-0-------|
|---------|
|---------|


   4/4
    |----3----|        |----3----|
    S S S S S S  Q     S S S S S S  Q
||-----------------------------------------||
||o---------------------------------------o||
||--------------[5]b7--------------[5]b7---||
||--0-5-7-0-5-7--------0-5-7-0-5-7---------||
||o---------------------------------------o||
||-----------------------------------------||


 2/4
  E Q.
|---------|
|---------|
|---------|
|-0-------|
|---------|
|---------|


    Q=145
   4/4
    S S S S S S S S S S S S S S S S   S S S S S S S S S S S S S S S S
||----------------------------------|---------------------------------|
||o---------------------------------|---------------------------------|
||----------------------------------|---------------------------------|
||------------------8-8-0-0-7-7-0-0-|---------------------------------|
||o-8-8-0-0-5-5-0-0-----------------|-5-5-5-5-8-8-8-8-----------------|
||----------------------------------|-----------------5-5-5-5-8-8-8-8-|


  S S S S S S S S S S S S S S S S   S S S S S S S S S S S S S S S S
|---------------------------------|----------------------------------||
|---------------------------------|---------------------------------o||
|---------------------------------|----------------------------------||
|-----------------8-8-0-0-7-7-0-0-|----------------------------------||
|-8-8-0-0-5-5-0-0-----------------|---------------------------------o||
|---------------------------------|-5-5-8-8-4-4-7-7-5-5-8-8-4-4-7-7--||


  Q=120
                                PM
  W          H.      Q     H    E Q.
|----------|-------------|-------------|
|----------|-------------|-------------|
|----------|-------------|-------------|
|-8--------|-5-------5\--|-------------|
|-8--------|-5-------5\--|-0----0------|
|-8--------|-5-------5\--|-0----0------|


    Q=145
    S S S S S S S S S S S S S S S S   H    H     3x
||----------------------------------|------------||
||o---------------------------------|-----------o||
||----------------------------------|------------||
||------------------8-8-0-0-7-7-0-0-|-8----5-----||
||o-8-8-0-0-5-5-0-0-----------------|-8----5----o||
||----------------------------------|-8----5-----||


  S S S S S S S S S S S S S S S S   H    Q  Q
|---------------------------------|------------|
|---------------------------------|------------|
|---------------------------------|------------|
|-----------------8-8-0-0-7-7-0-0-|-8----5-----|
|-8-8-0-0-5-5-0-0-----------------|-8----5-----|
|---------------------------------|-8----5-----|


    PM----------------------------|
    S S S S S S S S S S S S S S S S  3x S S S S S S S S S S S S S S S S
||-----------------------------------||----------------------------------|
||o---------------------------------o||----------------------------------|
||-----------------------------------||----------------------------------|
||------------------8-8-0-0-7-7-0-0--||----------------------------------|
||o-8-8-0-0-5-5-0-0-----------------o||----------------------------------|
||-----------------------------------||-5-5-8-8-4-4-7-7-5-5-8-8-4-4-7-7--|


    PM----------------------------|
    S S S S S S S S S S S S S S S S  3x S S S S S S S S S S S S S S S S
||-----------------------------------||----------------------------------|
||o---------------------------------o||----------------------------------|
||-----------------------------------||----------------------------------|
||------------------8-8-0-0-7-7-0-0--||----------------------------------|
||o-8-8-0-0-5-5-0-0-----------------o||----------------------------------|
||-----------------------------------||-5-5-8-8-4-4-7-7-5-5-8-8-4-4-7-7--|


  Q=135
  PM----|   PM|   PM----|   PM|     PM----|   PM|   PM------------|
  S S S S S S S S S S S S S S S S   S S S S S S S S S S S S S S S S
|---------------------------------|---------------------------------|
|---------------------------------|---------------------------------|
|---------------------------------|---------------------------------|
|---------------------------------|---------------------------------|
|-0-0-0-0---0-0---0-0-0-0---0-0---|-0-0-0-0---0-0---0-0-0-0-0-0-0-0-|
|-0-0-0-0---0-0---0-0-0-0---0-0---|-0-0-0-0---0-0---0-0-0-0-0-0-0-0-|


  PM----|   PM|   PM----|   PM|     PM----|   PM|
  S S S S S S S S S S S S S S S S   S S S S S S S S H
|---------------------------------|----------------------|
|---------------------------------|----------------------|
|---------------------------------|----------------------|
|---------------------------------|----------------------|
|-0-0-0-0---0-0---0-0-0-0---0-0---|-0-0-0-0---0-0--------|
|-0-0-0-0---0-0---0-0-0-0---0-0---|-0-0-0-0---0-0--------|


    PM----|   PM|   PM----|   PM|     PM----|   PM|   PM------------|
    S S S S S S S S S S S S S S S S   S S S S S S S S S S S S S S S S   4x
||----------------------------------|-----------------------------------||
||o---------------------------------|----------------------------------o||
||----------------------------------|-----------------------------------||
||----------------------------------|-----------------------------------||
||o-0-0-0-0---0-0---0-0-0-0---0-0---|-0-0-0-0---0-0---0-0-0-0-0-0-0-0--o||
||--0-0-0-0---0-0---0-0-0-0---0-0---|-0-0-0-0---0-0---0-0-0-0-0-0-0-0---||


  PM
  S H..       S   W
|---------------|------|
|---------------|------|
|---------------|------|
|---------------|------|
|-0-------------|------|
|-0-------------|------|


    PM---------|                PM---------|                            ~~~
    H    E. E. E   +W           H    E. E. E   +E  S S S S S S S S S S  Q
||---------------|------------|--------------|-------------------------------||
||o--------------|------------|--------------|------------------------------o||
||---------------|------------|--------------|-------------------------------||
||---------------|------------|--------------|-------------------------------||
||o-0----0--0--0-|-(0)--------|-0----0--0--0-|-(0)--------------------------o||
||--0----0--0--0-|-(0)--------|-0----0--0--0-|-(0)-5-5-8-8-0-0-7-7-4-4-[3]---||


    PM---------|
    H    E. E. E   +W      4x
||---------------|---------||
||o--------------|--------o||
||---------------|---------||
||---------------|---------||
||o-0----0--0--0-|-(0)----o||
||--0----0--0--0-|-(0)-----||


Duration Legend
---------------
W - whole; H - half; Q - quarter; E - 8th; S - 16th; T - 32nd; X - 64th; a - acciaccatura
+ - note tied to previous; . - note dotted; .. - note double dotted
Uncapitalized letters represent notes that are staccato (1/2 duration)
Irregular groupings are notated above the duration line
Duration letters will always appear directly above the note/fret number it represents the
duration for.  Duration letters with no fret number below them represent rests.  Multi-
bar rests are notated in the form Wxn, where n is the number of bars to rest for.  Low
melody durations appear below the staff

Tablature Legend
----------------
 h   - hammer-on
 p   - pull-off
 b   - bend
 pb  - pre-bend
 r   - bend release (if no number after the r, then release immediately)
 /\  - slide into or out of (from/to "nowhere")
 s   - legato slide
 S   - shift slide
  - natural harmonic
[n]  - artificial harmonic
n(n) - tapped harmonic
 ~   - vibrato
 tr  - trill
 T   - tap
 TP  - trem. picking
 PM  - palm muting
\n/  - tremolo bar dip; n = amount to dip
 \n  - tremolo bar down
 n/  - tremolo bar up
/n\  - tremolo bar inverted dip
 =   - hold bend; also acts as connecting device for hammers/pulls
 <>  - volume swell (louder/softer)
 x   - on rhythm slash represents muted slash
 o   - on rhythm slash represents single note slash

Misc Legend
-----------
 |  - bar
||  - double bar
||o - repeat start
o|| - repeat end
*|  - double bar (ending)
 :  - bar (freetime)
 $  - Segno
 &  - Coda
Tempo markers -  = BPM(8/16=s8/s16), where s8 = swing 8ths, s16 = swing 16ths


***************************************************************************************
* Generated using Power Tab Editor by Brad Larsen - http://powertab.guitarnetwork.org *
***************************************************************************************
Tap to rate this tab
# A B C D E F G H I J K L M N O P Q R S T U V W X Y Z