Guitaretab - guitar tabs
Song name
# A B C D E F G H I J K L M N O P Q R S T U V W X Y Z

Seneca - And When Times Goes tab

Ok  i tabbed out some of the song... its dont complete.. some parts i could not get but 
can be a good start.. feel free to add on to the tab.

Tuning: CGCFAD (Drop C)

Intro: "Words  mean nothing"

|---------------|-------------------------------------|
|---------------|-------------------------------------|
|---------------|-------------------------------------|
|---------------|---------8-7-------8-7-5-7-5-3-5-----|  x 8
|-0-0---0-0-0---|----0-0------0-0-0-------------------|
|-0-0---0-0-0---|----0-0------0-0-0-------------------|

Verse: "words so played out i am the epiphony"
[ Tab from: http://www.guitaretab.com/s/seneca/97225.html ]
|-----------------------------------------------------------------|
|-----------------------------------------------------------------|
|-----------------------------------------------------------------|
|-----------------------------------------------------------------|  x4
|--0-0-0-0-3---0-0-0-0-3---0-0-3---0-0-0-0-3---0-0-10-8-7-8-7-5---|
|--0-0-0-0-3---0-0-0-0-3---0-0-3---0-0-0-0-3---0-0----------------|

the next Breakdowns you can figure out   its chugs along with 10 8 7


Pre bridge: i couldnt figure out this part.. "i will bleed this forever and"

|-
|-
|-
|-
|-
|-

Bridge:
|----------------------------------------------------------------------------|
|----------------------------------------------------------------------------|
|----------------------------------------------------------------------------|
|-5---4-5-7-9-10-10-----5---4-5-7-5-4-2----5--4-5-7-9-10-9---5---4-5-7-5-4-2-|
|----------------------------------------------------------------------------|
|----------------------------------------------------------------------------|

The part during the singing i couldnt figure either.. thats as far as i got but im sure 
one else out there can figure out the rest that i couldn't
Related for And When Times Goes tab
Advertisement will be closed in 10 seconds