Song name
# A B C D E F G H I J K L M N O P Q R S T U V W X Y Z

Sensational Alex Harvey Band - Snake Bite tab

Hallo, my name is Vladimir, Im from Serbia.
This tab is a request.






        Sensational Alex Harvey Band - Snake bite
          (album: Tomorrow Belongs to Me, 1975)



Intro:

e|-----------7~----10~----7~--------7~----10~---7~--------------7~----------|
B|---0-3~--0-----0------0----0-3~--0-----0----0----0-3-3-3-3--0-------------|
G|--------------------------------------------------------------------------|
D|--------------------------------------------------------------------------|
A|--------------------------------------------------------------------------|
E|-----------------------------------------------------------------5-4-5--0-|



Riff:

e|-----------------------------|
B|-----------------------------|
G|-----------------------------|
D|---2--5---------------2--5---|
A|------------2-5--2-5---------|
E|-----------------------------|



E
Snake bite, she gimme a snake bite
Snake bite, she gimme a snake bite
Snake bite, she gimme a snake bite
Snake bite, she gimme a snake bite



Solo through chorus:

      E       D        A       E
e|--------12------10------5-------0-----|
B|------12------10-------5-------0------|
G|---7/9-------7--------6-------1-------|
D|------------7--------7-------2--------|
A|--------------------------------------|
E|--------------------------------------|


           E                      D
She was a little bit long and a little bit lean
  A                              E
That's the kind of woman make a man feel mean
 E                       D
She was the moon at night the only light
A                        E
That would ever brighten my life



Riff



She was another man's wife
She was another man's wife
She was another man's wife
She was another man's wife



I'm gonna turn his picture to the wall
With a little bit of boogie, that ain't all
Hang his body on the door
With aching heart and a little bit more



SOLO in chord F#
(too much for tabbing, for me, I have acoustic guitar)



Riff



She was another man's wife
She was another man's wife
Snake bite, she gimme a snake bite
Snake bite, she gimme a snake bite
Snake bite, she gimme a snake bite
Snake bite, she gimme a snake bite

she was a little bit long and a little bit lean
That's the kind of woman make a man feel mean
She gimme a snake bite
She gimme a snake bite



| /  slide up
| ~  vibrato



Any comments post me at tordajav@yahoo.com
Tap to rate this tab
# A B C D E F G H I J K L M N O P Q R S T U V W X Y Z