Song name
# A B C D E F G H I J K L M N O P Q R S T U V W X Y Z

Sense Field - Are You Okay tab

Are You Okay by Sense Field

Tabbed by SuperBeef (SuperBeefTabs@gmail.com)

This tab is my interpretation of others work, and is not for commercial use.  

Standard Tuning EADGBE


Intro


Part 1

    B5   A5   F#5
e-|------------------------|
B-|------------------------|
G-|-4-4--6-6--11-11-11-11--|
D-|-4-4--6-6--11-11-11-11--|
A-|-2-2--4-4--9--9--9--9---|
E-|------------------------|

Part 2

e-|---------------------|
B-|-4b-4-4-4-5-4-5-4-0--|
G-|---------------------|
D-|---------------------|
A-|---------------------|
E-|---------------------|

Repeat Part 1

Repeat Part 2 

Then

e-|------------------------|
B-|------------------------|
G-|-4b-2-2-2-2-----------6-|
D-|----2-2-2-2-4-4-4-4---6-|
A-|----0-0-0-0-4-4-4-4---4-|
E-|------------2-2-2-2-----|

Verse

You know how friends are funny when, when we're just clowning around...

[Guitar starts here, play below]

you know how friends get crazy when we can't stop messing around...
 we always leave a seat open for you when we go out, out on this town...
 we always drink a couple for you when we're all out... when we go out...


e-|------------------|
B-|------------------|
G-|-----1-----1----1-|
D-|---3-----3--------|
A-|-4-----4-----4----|
E-|------------------|

e-|------------------|
B-|-----0-----0------|
G-|------------------|
D-|---2-----2-----2--|
A-|-0---- 0-----0----|
E-|------------------|

e-|-------------------|
B-|-------------------|
G-|-----------4-------|
D-|---4-6-4-6---6-4---|
A-|-4-----------------|
E-|-------------------|


Chorus

just think of us together whenever you're down...
 are you okay...
 are you alright...


Fig 1

    B5   A5   F#5
e-|------------------------|
B-|------------------------|
G-|-4-4--6-6--11-11-11-11--|
D-|-4-4--6-6--11-11-11-11--|
A-|-2-2--4-4--9--9--9--9---|
E-|------------------------|

Fig 2

e-|------------------|
B-|-4b--4-5-4-5-4-0--|
G-|------------------|
D-|------------------|
A-|------------------|
E-|------------------|

do you count down the days like I count down the nights...
you know that I wait and I wait and I wait... 

Fig 1

Fig 2 as normal then

e-|------------------|
B-|-4b--4-5-7-5-4-0--|
G-|------------------|
D-|------------------|
A-|------------------|
E-|------------------|


e-|---------------------|
B-|---------------------|
G-|-4b-2-2-2-2----------|
D-|----2-2-2-2-4-4-4-4--|
A-|----0-0-0-0-4-4-4-4--|
E-|------------2-2-2-2--|

Verse 2

remember nights when our friends had to help carry us home...

[Guitar Starts Here]

remember times when we'd wake up in places we didn't know...
 there was always a light on for us, always guiding us home... to help find our way home...

e-|------0-----4-----|
B-|---------2--------|
G-|------------------|
D-|---2--------------|
A-|-4----------------|
E-|------------------|

e-|------0-----4-----|
B-|---------2--------|
G-|------------------|
D-|------------------|
A-|-0-4--------------|
E-|------------------|

e-|-----2---0-4------|
B-|-------2----------|
G-|------------------|
D-|---2--------------|
A-|-4----------------|
E-|------------------|

Bridge

B5 A5 E5 C#5 E5 x2

e-|-----------|
B-|-----------|
G-|-4-2---6---|
D-|-4-2-2-6-2-|
A-|-2-0-2-4-2-|
E-|-----0---0-|

Chorus

As Previous

just think of us together whenever you're down...
 are you alright...
 are you okay...
 they kept your room just the same as when you went away...
 are you alright...
 are you okay...

END


************************************

| /   slide up
| \   slide down
| h   hammer-on
| p   pull-off
| ~   vibrato
| +   harmonic
| x   Mute note
| b   Bend
| pb  Pre-bend
| br  Bend release
| pbr Pre-bend release
| brb Bend release bend

************************************
Tap to rate this tab
# A B C D E F G H I J K L M N O P Q R S T U V W X Y Z