Song name
# A B C D E F G H I J K L M N O P Q R S T U V W X Y Z

Senses Fail - Ali For Cody tab

Senses Fail
Ali For Cody
Life is Not A Waiting Room

 TUNING: Drop C

Any Questions email me at xzack4990x@hotmailcom
or IM me on Aim xDrummer4990x

This is my first tab but im 99.9% this is right

InTrO

D--------------------------|
A--6666666666-55555555555--|
F--7777777777-77777777777--| X2
C--------------------------|
G--------------------------|
C--------------------------|


RiFF AnD ChoRuS
D-----------------------------|
A-----------------------------|
F-----10/9/10-----------------| x2
C--0--x/x/x---0---------------|
G--0--8/7/8---0---------------|
C--0----------0-7-8-0-10h8h7--|

D-----------------------------------------------|
A-----------------------------------------------|
F-----10/9/7------------------------------------|
C--0--x/x/x---0---------------------------------|
G--0--8/7/5---0---------------------------------|
C--0----------0-7-8-0-10h8h7--555555-8888-8h7---|

VerSe
D--------------------------------|
A--------------------------------|
F--------------------------------| X2
C--0~----0~---88888888-77777777--|
G--0~----0~---88888888-77777777--|
C--0~----0~---88888888-77777777--|

D---------------|
A---------------|
F---------------|
C-555555555555--|
G-555555555555--|
C-555555555555--|

Play Chorus/Riff
(its played in a slightly different order but its easy to figure out)

Verse
Chorus/Riff

Thats it for now  ill do the bridge and the second guitar soon
Tap to rate this tab
# A B C D E F G H I J K L M N O P Q R S T U V W X Y Z