Song name
# A B C D E F G H I J K L M N O P Q R S T U V W X Y Z

Senses Fail - Life Is Not A Waiting Room tab

-------------------------------------------------------------------------------
			     Life Is Not A Waiting Room – Senses Fail
-------------------------------------------------------------------------------
Tabbed by: Skyler Hill
Email: Skylerashimself1@hotmail.com

Tuning: Drop D

e|---13-13--12-12--10-10----------13-13--12-12--10-10--------------------------|
B|------------------------10-10------------------------------------------------|
G|-----------------------------------------------------------------------------|
D|-----------------------------------------------------------------------------|
A|-----------------------------------------------------------------------------|
D|------------—----------------------------------------------------------------|
  Section A    Intro x1

e|---------------------------------------------------------------------------|
B|------------------------------------------8h10p8\6h8p6---------------------|
G|--------------9--9--9----10-10-10----------------------9-------------------|
D|----0--0-0----10-10-10---10-10-10------------------------------------------|
A|----0--0-0----7--7--7----8--8--8-------------------------------------------|
D|----0--0-0----7--7--7----8--8--8-------------------------------------------|
  Section B   Intro Chords / Chorus

e|-------------------------------------------------------------------------|
B|-------------8-----------------------------------------------------------|
G|-------------7-----------------------------------------------------------|
D|----0--------5-----------------------------------------------------------|
A|----0--------5-----------------------------------------------------------|
D|----0--------5-----------------------------------------------------------|
   Section C   Verse Riff x2

e|---------------------------------------------------------------------------|
B|---------------------------------------------------------------------------|
G|---------------------------------------------------------------------------|
D|-------------------8-------------8-----8----0-------------0-----0----10----|
A|-------------------8-------------8-----8----0-------------0-----0----10----|
D|----5-5-5-5-5-5-5--8-8-8-8-8-8-8-8-8-8-8-8--0-0-0-0-0-0-0-0-0-0-0-0--10-10-|
   Section D


e|-----------------------------------------------------------------------------|
B|-----------------------------------------------------------------------------|
G|---------------------------------------10-x-x--9--x-x--5--x-x----------------|
D|----------------10-------10-----0------x--x-x--x--x-x--x--x-x----------------|
A|----------------10-------10-----0------8--x-x--7--x-x--3--x-x----------------|
D|-10-10-10-10-10-10-10-10-10-10--0--0-0---------------------------------------|
   Section D (Cont.)   Pre-Chorus Riff x1

e|---------------------------------------------------------------------------|
B|---------------------------------------------------------------------------|
G|---------------------------------------------------------------------------|
D|--10-------------------10-------10-------10-------10-10-------10-10--------|
A|--10-------------------10-------10-------10-------10-10-------10-10--------|
D|--10-10-10-10-10-10-10-10-10-10-10-10-10-10-10-10-10-10-10-10-10-10--------|
   Section D (2nd Ending)


Then repeat Section B (Chorus)

Then repeat Section A x1

Then repeat Section C x2

Then repeat Section D x1

Then Repeat Section B (Chorus)

Then Repeat Section A x1

e|---------------------------------------------------------------------------|
B|---------------------------------------------------------------------------|
G|---------------------------------------------------------------------------|
D|--0-0-0-0-0-0-0-0--8-8-8-8-8-8-8-8--10-10-10-10-10-10-10-10--7-7-7-7-7-7-7-|
A|--0-0-0-0-0-0-0-0--8-8-8-8-8-8-8-8--10-10-10-10-10-10-10-10--7-7-7-7-7-7-7-|
D|--0-0-0-0-0-0-0-0--8-8-8-8-8-8-8-8--10-10-10-10-10-10-10-10--7-7-7-7-7-7-7-|
   Section E  x2

e|---------------------------------------------------------------------------|
B|---------------------------------------------------------------------------|
G|---------------------------------------------------------------------------|
D|--8-8-8-8-8-8-8-8--7-7-7-7-7-7-7-7-----------------------------------------|
A|--8-8-8-8-8-8-8-8--7-7-7-7-7-7-7-7-----------------------------------------|
D|--8-8-8-8-8-8-8-8--7-7-7-7-7-7-7-7-----------------------------------------|
   Section F  x1                                                     ^
                                                                     |
e|-----------------------------------------------------------------------------|
B|-----------------------------------------------------------------------------|
G|---10------10-10-----10-12-----12-12-----12----------------------------------|
D|---x-------x--x------x--x------x--x------x-----------------------------------|
A|---8-------8--8------8--10-----10-10-----10----------------------------------|
D|-------0---------0----------0---------0--------------------------------------|
   Section G

e|-----------------------------------------------------------------------------|
B|-----------------------------------------------------------------------------|
G|-----------------------------------------------------------------------------|
D|--8-8-8-8-8-8-8-8--7---------------------------------------------------------|
A|--8-8-8-8-8-8-8-8--7---------------------------------------------------------|
D|--8-8-8-8-8-8-8-8--7---------------------------------------------------------|
                     Let Ring…………………

Then repeat Section B (Chorus)

| / slide up
| \ slide down
| h hammer-on
| p pull-off
| ~ vibrato
| + harmonic
| x Mute note
===============================================================================
Tap to rate this tab
# A B C D E F G H I J K L M N O P Q R S T U V W X Y Z