Song name
# A B C D E F G H I J K L M N O P Q R S T U V W X Y Z

Senses Fail - Institutionalized tab

----------------------------------------------------------------------------
			     Institutionalized - Senses Fail
----------------------------------------------------------------------------
Tabbed by: teenguitargod
Email: bigdog5555@comcast.net

Tuning: drop D (DADGBE)

these are the main parts of the song.  very easy to play and also an amazing cover song.


(main riff)Intro/verse
e|-------------|
b|-------------|
G|--4--44/5-5--|   play this until the chorus...idk how many times to play it
d|--4--44/5-5--|   but listen to the song and play along to see.
A|--2--22/3-3--|
E|-------------|


Chorus:
e|--------------------------------------------------------------------------|
B|--------------------------------------------------------------------------|
G|--------------------------------------------------------------------------|
D|--4-4-4-4-4-4-4-4-4-4-4-4-4-4-4-4--7-7-7-7--6-6-6-6-----------------------|
A|--4-4-4-4-4-4-4-4-4-4-4-4-4-4-4-4--7-7-7-7--6-6-6-6-----------------------|
E|--4-4-4-4-4-4-4-4-4-4-4-4-4-4-4-4--7-7-7-7--6-6-6-6-----------------------|
                    I'm  not crazy! (INSTITUTIONALIZED!)

e|--------------------------------------------------------------------------|
B|--------------------------------------------------------------------------|
G|--------------------------------------------------------------------------|
D|--4-4-4-4-4-4-4-4--7-7-7-7--6-6-6-6---4-4-4-4-4-4-4-4--7-7-7-7--6-6-6-6---|
A|--4-4-4-4-4-4-4-4--7-7-7-7--6-6-6-6---4-4-4-4-4-4-4-4--7-7-7-7--6-6-6-6---|
E|--4-4-4-4-4-4-4-4--7-7-7-7--6-6-6-6---4-4-4-4-4-4-4-4--7-7-7-7--6-6-6-6---|
   ur always crazy! INSTITUITIONALIZED! youdrivemecrazy! INSTITUTIONALIZED!

post chorus:
e|---------------------------------------------------------------------------|
B|---------------------------------------------------------------------------|
G|---------------------------------------------------------------------------|
D|--4--5--4--5--4--5--4--5--4--5--4--5--4--5--4--5--4~b----------------------|
A|--4--5--4--5--4--5--4--5--4--5--4--5--4--5--4--5--4~b----------------------|
E|--2--3--2--3--2--3--2--3--2--3--2--3--2--3--2--3--2~b----------------------|
    (blah blah blah...somethin i cant understand...)

yeah so thats pretty much it

verse
chorus
post chorus
verse
chorus
post chorus
verse
chorus
post chorus

  b  bend
| /  slide up
| \  slide down
| h  hammer-on
| p  pull-off
| ~  vibrato
| +  harmonic
| x  Mute note
============================================================================
Tap to rate this tab
 
# A B C D E F G H I J K L M N O P Q R S T U V W X Y Z