Song name
# A B C D E F G H I J K L M N O P Q R S T U V W X Y Z

Senses Fail - Rapture tab

Tabbed by:dylan nolff (shadowedheart91)
Email:n/a

Tuning: drop d
 guitar isnt in perfect tuning, so go back one fret while playing.
 rate and leave comments, any corrections are appreciated

GUITAR 1

verse
e|-------------------------------------------------------|
B|-------------------------------------------------------|
G|--8-8-8-8-8--7-7-7-7-7--10-10-10-10-10--12-12-12-12-12-|    X 2
D|--x-x-x-x-x--x-x-x-x-x---x--x--x--x--x---x--x--x--x--x-|
A|--6-6-6-6-6--5-5-5-5-5---8--8--8--8--8--10-10-10-10-10-|
E|-------------------------------------------------------|

e|-------------------------------------------------------------|
B|-------------------------------------------------------------|
G|-8-8-8-8-8--10-10-10-10-10/12-12-12--10-8/15-15-15--12--10---|   X 2
D|-x-x-x-x-x---x--x--x--x--x/-x--x--x---x-x/-x--x--x---x---x---|
A|-6-6-6-6-6---8--8--8--8--8/10-10-10---8-6/13-13-13--10---8---|
E|-------------------------------------------------------------|

chorus
e|-------------------------------------------------------------------------|
B|-------------------------------------------------------------------------|
G|-------------------------------------------------------------------------|
D|-6-6-6--5-5-5--1-1-1-1--6-6-6--5-5-5--1-1-1-1-6-6-6--5-5-5--1-1-1--3-3-3-|
A|-6-6-6--5-5-5--1-1-1-1--6-6-6--5-5-5--1-1-1-1-6-6-6--5-5-5--1-1-1--3-3-3-|
E|-6-6-6--5-5-5--1-1-1-1--6-6-6--5-5-5--1-1-1-1-6-6-6--5-5-5--1-1-1--3-3-3-|

e|------------------------|
B|------------------------|
G|------------------------|
D|-6-6-6--5-5-5--1-1-1-1--|
A|-6-6-6--5-5-5--1-1-1-1--|
E|-6-6-6--5-5-5--1-1-1-1--|

last chorus end on
e|---------|
B|---------|
G|---------|
D|-1-------|
A|-1-------|
E|-1-------|
repeat verse
repeat chorus


| /  slide up
| \  slide down
| h  hammer-on
| p  pull-off
| ~  vibrato
| +  harmonic
| x  Mute note
===============================================================================
Tap to rate this tab
# A B C D E F G H I J K L M N O P Q R S T U V W X Y Z