Guitaretab - guitar tabs
Song name
# A B C D E F G H I J K L M N O P Q R S T U V W X Y Z

Senses Fail - Lost And Found tab

Lost and found By Senses Fail


I think its mostly right. Except maybe some of the verses.




Intro
First guitar
e|---------8-----------5------------------------------|
B|----6-----------6-----------6---8------6-----10-11--|
G|--7---7-------7---7-------7---7------7---7----------|
D|----------------------------------------------------|
A|----------------------------------------------------|
E|----------------------------------------------------|

2nd guitar
e|----12----12----12---12----9-----9-----9-----9------|
B|-10----10----10---10----10----10----10----10--------|
G|----------------------------------------------------|
D|----------------------------------------------------|
A|----------------------------------------------------|
E|----------------------------------------------------|
[ Tab from: http://www.guitaretab.com/s/senses-fail/148638.html ]
Verse
e|--------------------------------|
B|--------------------------------|
G|--------------------------------|
D|--------------------------------|
A|--------------------------------|
E|--------------------------------|

Pre Chorus
e|--------------------------------|
B|--------------------------------|
G|--------------------------------|
D|--5h6--5ó--5/2------------------|
A|--------------------------------|
E|--------------------------------|


Chorus 

e|----------------------------------------|
B|----------------------------------------|
G|--8-8-8-8------6-6-6-6------------------|
D|--8-8-8-8------6-6-6-6------------------|
A|--6-6-6-6------4-4-4-4------------------|
E|----------------------------------------|


This is the part were Iíll admit

e|-----------------------------------|
B|-----------------------------------|
G|---9-9-9---------------------------|
D|---9-9-9---------------------------|
A|---7-7-7---------------------------|
E|-----------------------------------|

Thats all i got so far  tabbed by ebrown
Related for Lost And Found tab