Song name
# A B C D E F G H I J K L M N O P Q R S T U V W X Y Z

Senses Fail - Champagne tab

I'm only posting the intro because everything else in the song revolves aroun the same chords.



e|---------------------------------------|
b|---------------------------------------|
g|-----777-----666-99-77-----------------|
d|-000-xxx-000-xxx-xx-xx-4-4-44-55-5-55-5|
a|-000-555-000-444-77-55-4-4-44-55-5-55-5|
d|-000-----000-----------4-4-44-55-5-55-5|
   ...     ...               .. ..   ..      
e|------------------------------------------------|
b|------------------------------------------------|
g|-----111111-----999-12-12-1111------------------|
d|-000-x-x-x--000-xxx-x--x--x-x---9-9-99-55-5-55-5|
a|-000-9-9-9--000-777-10-10-9-9---9-9-99-55-5-55-5|
d|-000--------000-----------------9-9-99-55-5-55-5|
   ...        ...                     .. ..   ..   
Tap to rate this tab
# A B C D E F G H I J K L M N O P Q R S T U V W X Y Z