Song name
# A B C D E F G H I J K L M N O P Q R S T U V W X Y Z

Senses Fail - Family Tradition tab

-------------------------------------------------------------------------------
			     Family Traditon - Senses Fail
-------------------------------------------------------------------------------
Tabbed by:Phat Stud 55
Email:phatstud55@gmail.com

Tuning:Drop C Low to High CGCFAd

Presong Notes:  I've written this tab in Drop C however you can play this in drop D just 
all the notes down 2 frets.
*I will put a line between the different sections i.e verse intro
**lead on top and Rhythm on Bottom
***notes are at the bottom.
Intro

d|-----------------------------------------------------|
A|-----------------------------------------------------|
F|-11-1111----11-1111-xx--11b-11-1111----11-1111-xx-11-|
C|-x--x-x-xx--x--x-x--xx--x---x--x-x-xx--x--x-x--xx-x--|
G|-9--9-9-xx--9--9-9--xx--9b--9--9-9-xx--9--9-9--xx-9--|
C|-0--0-0-xx--0--0-0--xx--0---0--0-0-xx--0--0-0--xx-0--|

d|--------------17---17-----------------------------------------|
A|---------------------20--20-19--19----------------------------|
F|-18-19--18h19---------------------19--19-18--18-19--19--------|
C|--------------------------------------------------------------|
G|--------------------------------------------------------------|
C|--------------------------------------------------------------|
 |*Delay on-See notes for settings
d|--------------------------------------------------------------|
A|--------------------------------------------------------------|
F|-7---7-7--7---7-7--7---7-7--7---7-7--7---7-7--7---7-7---------|
C|-0---0-0--0---0-0--0---0-0--0---0-0--0---0-0--0---0-0---------|
G|-0---0-0--0---0-0--0---0-0--0---0-0--0---0-0--0---0-0---------|
C|-0---0-0--0---0-0--0---0-0--0---0-0--0---0-0--0---0-0---------|
 P.M   * *      * *      * *      * *      * *      * *

d|--------------17---17---------------------17--17-----------------------------------|
A|----------------------20--20-19--19-------------20--20--19--19---------------------|
F|-19191918h19------------------------19--19--------------------19--19-18--18-19-19--|
C|-----------------------------------------------------------------------------------|
G|-----------------------------------------------------------------------------------|
C|-----------------------------------------------------------------------------------|
 |
d|-----------------------------------------------------------------------------------|
A|-----------------------------------------------------------------------------------|
F|-5---7-7--7---7-7--7---7-7--7---7-7--7---7-7--7---7-7--7---7-7--7---7-7--7---7-7--7|
C|-5---5-5--5---5-5--5---5-5--5---5-5--0---0-0--0---0-0--0---0-0--0---0-0--0---0-0--0|
G|-5---5-5--5---5-5--5---5-5--5---5-5--0---0-0--0---0-0--0---0-0--0---0-0--0---0-0--0|
C|-5---5-5--5---5-5--5---5-5--5---5-5--0---0-0--0---0-0--0---0-0--0---0-0--0---0-0--0|
 P.M   * *      * *      * *      * *      * *      * *      * *      * *

d|--------------17--17----------------|
A|--------------------20--20--19--19--|
F|-191919p18h19-----------------------|
C|------------------------------------|
G|------------------------------------|
C|------------------------------------|
 |
d|------------------------------------|
A|------------------------------------|
F|-7---7-7-----7---7-7--7---7-7--7----|
C|-0---0-0-----5---5-5--5---5-5--0----|
G|-0---0-0-----5---5-5--5---5-5--0----|
C|-0---0-0-----5---5-5--5---5-5--0----|
P.M    * *         * *      * *
____________________________________________________
Verse 1

d|--------------------------------------------------------------------------|
A|--------------------------------------------------------------------------|
F|---------111111111111111--7-7-7-7-7-7-7-7---------------------------------|
C|-xxxxxx--9-9-9-9-9-9-9-9--5-5-5-5-5-5-5-5---0-0--0------------------------|
G|-xxxxxx--9-9-9-9-9-9-9-9--5-5-5-5-5-5-5-5---0-0--0------------------------|
C|-xxxxxx--9-9-9-9-9-9-9-9--5-5-5-5-5-5-5-5---0-0--0------------------------|
 P.M                                          * *

d|------------------------------------------------------------|
A|------------------------------------------------------------|
F|---------111111111111111--7-7-7-7-7-7-7-7-------9-----------|
C|-xxxxxx--9-9-9-9-9-9-9-9--5-5-5-5-5-5-5-5---5-5-7-----------|
G|-xxxxxx--9-9-9-9-9-9-9-9--5-5-5-5-5-5-5-5---5-5-7-----------|
C|-xxxxxx--9-9-9-9-9-9-9-9--5-5-5-5-5-5-5-5---5-5-7-----------|
 |P.M                                         * *
d|------------------------------------------------------------|
A|------------------------------------------------------------|
F|---------1111111111111111--7-7-7-7-7-7-7-7-------9----------|
C|-xxxxxx--x-x-x-x-x-x-x-x---x-x-x-x-x-x-x-x-------x----------|
G|-xxxxxx--9-9-9-9-9-9-9-9---5-5-5-5-5-5-5-5-------7----------|
C|-xxxxxx-----------------------------------------------------|
 |
d|------------------------------------------------------------|
A|------------------------------------------------------------|
F|---------1111111111111111--7-7-7-7-7-7-7-7-------9-----6----|
C|-xxxxxx--x-x-x-x-x-x-x-x---x-x-x-x-x-x-x-x-------x-----x----|
G|-xxxxxx--9-9-9-9-9-9-9-9---5-5-5-5-5-5-5-5-------7-----4----|
C|-xxxxxx-----------------------------------------------------|
_______________________________________________________________
Chorus

d|------------------------------------------------------|
A|------------------------------------------------------|
F|-1111111111111111-7-7-7-7-7-7-7-7-9-9-9-9-9-9-9-9-----|
C|-9-9-9-9-9-9-9-9--5-5-5-5-5-5-5-5-7-7-7-7-7-7-7-7-----|
G|-9-9-9-9-9-9-9-9--5-5-5-5-5-5-5-5-7-7-7-7-7-7-7-7-----|
C|-9-9-9-9-9-9-9-9--5-5-5-5-5-5-5-5-7-7-7-7-7-7-7-7-----|
 |
d|------------------------------------------------------|
A|------------------------------------------------------|
F|-1111111111111111-14--11--9---7-7-6-6-6-6-6-6-6-6-----|
C|-x-x-x-x-x-x-x-x---x--x---x---x-x-x-x-x-x-x-x-x-x-----|
G|-9-9-9-9-9-9-9-9--12--9---7---5-5-4-4-4-4-4-4-4-4-----|
C|------------------------------------------------------|

d|------------------------------------------------------|
A|------------------------------------------------------|
F|-1111111111111111-7-7-7-7-7-7-7-7-9-9-9-9-9-9-9-9-----|
C|-9-9-9-9-9-9-9-9--5-5-5-5-5-5-5-5-7-7-7-7-7-7-7-7-----|
G|-9-9-9-9-9-9-9-9--5-5-5-5-5-5-5-5-7-7-7-7-7-7-7-7-----|
C|-9-9-9-9-9-9-9-9--5-5-5-5-5-5-5-5-7-7-7-7-7-7-7-7-----|
 |
d|------------------------------------------------------|
A|------------------------------------------------------|
F|-1111111111111111-14--11--9---7-7-6-6-6-6-6-6-6-6-----|
C|-x-x-x-x-x-x-x-x---x--x---x---x-x-x-x-x-x-x-x-x-x-----|
G|-9-9-9-9-9-9-9-9--12--9---7---5-5-4-4-4-4-4-4-4-4-----|
C|------------------------------------------------------|
_____________________________________________________________
Preverse

d|--------------17---17-----------------------------------------|
A|---------------------20--20-19--19----------------------------|
F|-18-19--18h19---------------------19--19-18--18-19--19--------|
C|--------------------------------------------------------------|
G|--------------------------------------------------------------|
C|--------------------------------------------------------------|
 |*Delay on-See notes for settings
d|--------------------------------------------------------------|
A|--------------------------------------------------------------|
F|-7---7-7--7---7-7--7---7-7--7---7-7--7---7-7--7---7-7---------|
C|-0---0-0--0---0-0--0---0-0--0---0-0--0---0-0--0---0-0---------|
G|-0---0-0--0---0-0--0---0-0--0---0-0--0---0-0--0---0-0---------|
C|-0---0-0--0---0-0--0---0-0--0---0-0--0---0-0--0---0-0---------|
 P.M   * *      * *      * *      * *      * *      * *

d|--------------17---17-------------------|
A|----------------------20--20-19--19-----|
F|-19191918h19----------------------------|
C|----------------------------------------|
G|----------------------------------------|
C|----------------------------------------|
 |
d|----------------------------------------|
A|----------------------------------------|
F|-5---7-7--7---7-7--7---7-7--7---7-7--7--|
C|-5---5-5--5---5-5--5---5-5--5---5-5--0--|
G|-5---5-5--5---5-5--5---5-5--5---5-5--0--|
C|-5---5-5--5---5-5--5---5-5--5---5-5--0--|
 P.M   * *      * *      * *      * *
_______________________________________________
Verse 2
d|--------------------------------------------------------------------------|
A|--------------------------------------------------------------------------|
F|---------111111111111111--7-7-7-7-7-7-7-7---------------------------------|
C|-xxxxxx--9-9-9-9-9-9-9-9--5-5-5-5-5-5-5-5---0-0--0------------------------|
G|-xxxxxx--9-9-9-9-9-9-9-9--5-5-5-5-5-5-5-5---0-0--0------------------------|
C|-xxxxxx--9-9-9-9-9-9-9-9--5-5-5-5-5-5-5-5---0-0--0------------------------|
 P.M                                          * *

d|------------------------------------------------------------|
A|------------------------------------------------------------|
F|---------111111111111111--7-7-7-7-7-7-7-7-------9-----------|
C|-xxxxxx--9-9-9-9-9-9-9-9--5-5-5-5-5-5-5-5---5-5-7-----------|
G|-xxxxxx--9-9-9-9-9-9-9-9--5-5-5-5-5-5-5-5---5-5-7-----------|
C|-xxxxxx--9-9-9-9-9-9-9-9--5-5-5-5-5-5-5-5---5-5-7-----------|
 |P.M                                         * *
d|------------------------------------------------------------|
A|------------------------------------------------------------|
F|---------1111111111111111--7-7-7-7-7-7-7-7-------9----------|
C|-xxxxxx--x-x-x-x-x-x-x-x---x-x-x-x-x-x-x-x-------x----------|
G|-xxxxxx--9-9-9-9-9-9-9-9---5-5-5-5-5-5-5-5-------7----------|
C|-xxxxxx-----------------------------------------------------|
 |
d|------------------------------------------------------------|
A|------------------------------------------------------------|
F|---------1111111111111111--7-7-7-7-7-7-7-7-------9-----6----|
C|-xxxxxx--x-x-x-x-x-x-x-x---x-x-x-x-x-x-x-x-------x-----x----|
G|-xxxxxx--9-9-9-9-9-9-9-9---5-5-5-5-5-5-5-5-------7-----4----|
C|-xxxxxx-----------------------------------------------------|
______________________________________________________________________
Chorus

d|------------------------------------------------------|
A|------------------------------------------------------|
F|-1111111111111111-7-7-7-7-7-7-7-7-9-9-9-9-9-9-9-9-----|
C|-9-9-9-9-9-9-9-9--5-5-5-5-5-5-5-5-7-7-7-7-7-7-7-7-----|
G|-9-9-9-9-9-9-9-9--5-5-5-5-5-5-5-5-7-7-7-7-7-7-7-7-----|
C|-9-9-9-9-9-9-9-9--5-5-5-5-5-5-5-5-7-7-7-7-7-7-7-7-----|
 |
d|------------------------------------------------------|
A|------------------------------------------------------|
F|-1111111111111111-14--11--9---7-7-6-6-6-6-6-6-6-6-----|
C|-x-x-x-x-x-x-x-x---x--x---x---x-x-x-x-x-x-x-x-x-x-----|
G|-9-9-9-9-9-9-9-9--12--9---7---5-5-4-4-4-4-4-4-4-4-----|
C|------------------------------------------------------|

d|------------------------------------------------------|
A|------------------------------------------------------|
F|-1111111111111111-7-7-7-7-7-7-7-7-9-9-9-9-9-9-9-9-----|
C|-9-9-9-9-9-9-9-9--5-5-5-5-5-5-5-5-7-7-7-7-7-7-7-7-----|
G|-9-9-9-9-9-9-9-9--5-5-5-5-5-5-5-5-7-7-7-7-7-7-7-7-----|
C|-9-9-9-9-9-9-9-9--5-5-5-5-5-5-5-5-7-7-7-7-7-7-7-7-----|
 |
d|------------------------------------------------------|
A|------------------------------------------------------|
F|-1111111111111111-14--11--9---7-7-6-6-6-6-6-6-6-6-----|
C|-x-x-x-x-x-x-x-x---x--x---x---x-x-x-x-x-x-x-x-x-x-----|
G|-9-9-9-9-9-9-9-9--12--9---7---5-5-4-4-4-4-4-4-4-4-----|
C|------------------------------------------------------|
____________________________________________________________
Breakdown

d|---------------------------------------------------|
A|---------------------------------------------------|
F|-111111111111-1111-13-13--9-9-9-9-9-9-9-9-1111-----|
C|-9-9-9-9-9-9--x-x---x--x--7-7-7-7-7-7-x-x-x-x------|
G|-9-9-9-9-9-9--9-9--11-11--7-7-7-7-7-7-7-7-9-9------|
C|-9-9-9-9-9-9--------------7-7-7-7-7-7--------------|

d|---------------------------------------------------|
A|---------------------------------------------------|
F|-7-7-7-7-7-7-7-7-9-9-9-9-9-9-9-9-9-9-1111----------|
C|-5-5-5-5-5-5-x-x-x-x-7-7-7-7-7-7-x-x-x-x-----------|
G|-5-5-5-5-5-5-5-5-7-7-7-7-7-7-7-7-7-7-9-9-----------|
C|-5-5-5-5-5-5---------7-7-7-7-7-7-------------------|

d|--------------------------------------------------------------------|
A|--------------------------------------------------------------------|
F|-11111111111111119-9-9-9-9-9-9-9-7-7-7-7-7-7-7-7-6-6-6-6-6-6-6-6----|
C|-x-x-x-x-x-x-x-x-x-x-x-x-x-x-x-x-x-x-x-x-x-x-x-x-x-x-x-x-x-x-x-x----|x2
G|-9-9-9-9-9-9-9-9-7-7-7-7-7-7-7-7-5-5-5-5-5-5-5-5-4-4-4-4-4-4-4-4----|
C|--------------------------------------------------------------------|
________________________________________________________________________

Chorus

d|------------------------------------------------------|
A|------------------------------------------------------|
F|-1111111111111111-7-7-7-7-7-7-7-7-9-9-9-9-9-9-9-9-----|
C|-9-9-9-9-9-9-9-9--5-5-5-5-5-5-5-5-7-7-7-7-7-7-7-7-----|
G|-9-9-9-9-9-9-9-9--5-5-5-5-5-5-5-5-7-7-7-7-7-7-7-7-----|
C|-9-9-9-9-9-9-9-9--5-5-5-5-5-5-5-5-7-7-7-7-7-7-7-7-----|
 |
d|------------------------------------------------------|
A|------------------------------------------------------|
F|-1111111111111111-14--11--9---7-7-6-6-6-6-6-6-6-6-----|
C|-x-x-x-x-x-x-x-x---x--x---x---x-x-x-x-x-x-x-x-x-x-----|
G|-9-9-9-9-9-9-9-9--12--9---7---5-5-4-4-4-4-4-4-4-4-----|
C|------------------------------------------------------|

d|------------------------------------------------------|
A|------------------------------------------------------|
F|-1111111111111111-7-7-7-7-7-7-7-7-9-9-9-9-9-9-9-9-----|
C|-9-9-9-9-9-9-9-9--5-5-5-5-5-5-5-5-7-7-7-7-7-7-7-7-----|
G|-9-9-9-9-9-9-9-9--5-5-5-5-5-5-5-5-7-7-7-7-7-7-7-7-----|
C|-9-9-9-9-9-9-9-9--5-5-5-5-5-5-5-5-7-7-7-7-7-7-7-7-----|
 |
d|------------------------------------------------------|
A|------------------------------------------------------|
F|-1111111111111111-14--11--9---7-7-6-6-6-6-6-6-6-6-----|
C|-x-x-x-x-x-x-x-x---x--x---x---x-x-x-x-x-x-x-x-x-x-----|
G|-9-9-9-9-9-9-9-9--12--9---7---5-5-4-4-4-4-4-4-4-4-----|
C|------------------------------------------------------|

d|------------------------------------------------------|
A|------------------------------------------------------|
F|-1111111111111111-7-7-7-7-7-7-7-7-9-9-9-9-9-9-9-9-----|
C|-9-9-9-9-9-9-9-9--5-5-5-5-5-5-5-5-7-7-7-7-7-7-7-7-----|
G|-9-9-9-9-9-9-9-9--5-5-5-5-5-5-5-5-7-7-7-7-7-7-7-7-----|
C|-9-9-9-9-9-9-9-9--5-5-5-5-5-5-5-5-7-7-7-7-7-7-7-7-----|
 |
d|------------------------------------------------------|
A|------------------------------------------------------|
F|-1111111111111111-14--11--9---7-7-6-6-6-6-6-6-6-6-----|
C|-x-x-x-x-x-x-x-x---x--x---x---x-x-x-x-x-x-x-x-x-x-----|
G|-9-9-9-9-9-9-9-9--12--9---7---5-5-4-4-4-4-4-4-4-4-----|
C|------------------------------------------------------|

d|------------------------------------------------------|
A|------------------------------------------------------|
F|-1111111111111111-7-7-7-7-7-7-7-7-9-9-9-9-9-9-9-9-----|
C|-9-9-9-9-9-9-9-9--5-5-5-5-5-5-5-5-7-7-7-7-7-7-7-7-----|
G|-9-9-9-9-9-9-9-9--5-5-5-5-5-5-5-5-7-7-7-7-7-7-7-7-----|
C|-9-9-9-9-9-9-9-9--5-5-5-5-5-5-5-5-7-7-7-7-7-7-7-7-----|
 |
d|------------------------------------------------------|
A|------------------------------------------------------|
F|-1111111111111111-14--11--9---7-7-6-6-6-6-6-6-6-6-----|
C|-x-x-x-x-x-x-x-x---x--x---x---x-x-x-x-x-x-x-x-x-x-----|
G|-9-9-9-9-9-9-9-9--12--9---7---5-5-4-4-4-4-4-4-4-4-----|
C|------------------------------------------------------|
_________________________________________________________________________
Outro

d|--------------17---17-----------------------------------------|
A|---------------------20--20-19--19----------------------------|
F|-18-19--18h19---------------------19--19-18--18-19--19--------|
C|--------------------------------------------------------------|
G|--------------------------------------------------------------|
C|--------------------------------------------------------------|
 |*Delay on-See notes for settings
d|--------------------------------------------------------------|
A|--------------------------------------------------------------|
F|-7---7-7--7---7-7--7---7-7--7---7-7--7---7-7--7---7-7---------|
C|-0---0-0--0---0-0--0---0-0--0---0-0--0---0-0--0---0-0---------|
G|-0---0-0--0---0-0--0---0-0--0---0-0--0---0-0--0---0-0---------|
C|-0---0-0--0---0-0--0---0-0--0---0-0--0---0-0--0---0-0---------|
 P.M   * *      * *      * *      * *      * *      * *

d|--------------17---17-------------------|
A|----------------------20--20-19--19-----|
F|-19191918h19----------------------------|
C|----------------------------------------|
G|----------------------------------------|
C|----------------------------------------|
 |
d|----------------------------------------|
A|----------------------------------------|
F|-5---7-7--7---7-7--7---7-7--7---7-7--7--|
C|-5---5-5--5---5-5--5---5-5--5---5-5--0--|
G|-5---5-5--5---5-5--5---5-5--5---5-5--0--|
C|-5---5-5--5---5-5--5---5-5--5---5-5--0--|
 P.M   * *      * *      * *      * *

That's It

Notes:
1. Delay.  In the intro, pre-verse and outro the lead guitar uses a delay.
Here are the settings.  Because the delay I'm using isn't fully analog I'll
Try my best at where the knobs go
Time:4.7
Repeats:1 or knob at 3.2
Level:7
Remember these are the knobs not times

I know that there are parts missing or wrong especially in the breakdown, if
you figure them out you can tell me, if you want, and I'll happily put it in
the tab giving you full credit.  Any other questions or comments just email
me and I'll mail you back as soon as possible.  Once again have fun.

One last note:
The | between 2 or more tabs means that they are played at the same time.

______Key_______
| /  slide up   |
| \  slide down |
| h  hammer-on  |
| p  pull-off   |
| ~  vibrato    |
| +  harmonic   |
| x  Mute note  |
-----------------
Tap to rate this tab
# A B C D E F G H I J K L M N O P Q R S T U V W X Y Z