Guitaretab - guitar tabs
Song name
# A B C D E F G H I J K L M N O P Q R S T U V W X Y Z

Senses Fail - Lungs Like Gallows tab

Tabbed out very roughly for the band so the timings a little off as i
could just show it to the 2nd guitarist

Tuning: Dropped C

Right guitar

Intro

d|-----------------------------------------------------|
a|-----------------------------------------------------|
f|----------10-10-10-10----------------12-12-12-12-----|
c|10h12-0-0-x--x--x--x--0-0-10h12p10p0-x--x--x--x--0-0-|
g|10h12-0-0-8--8--8--8--0-0-10h12p10p0-10-10-10-10-0-0-|
c|10h12-0-0-------------0-0-10h12p10p0-------------0-0-|

d|-----------------------------------------------------|
a|-----------------------------------------------------|
f|-----------------------------------------------------|
c|7-8-8-8-8--------------------------------------------|
g|7-8-8-8-8--------------------------------------------|
c|7-8-8-8-8-0-0-8h10-0-0-10h12-0-0-12h14-0-0-14h15-0-0-|
            . .      . .       . .       . .       . .
Verse 1

d|----------------------------------------------------------------------------|
a|----------------------------------------------------------------------------|
f|----------------------------------------------------------------------------|
c|----------------------------------------------------------------------------|
g|----------------------------------------------------------------------------|
c|10h12-0-0-0-0-10h12-0-0-0-0-10h12-0-0-10h12-0-0-0-0-10h12-0-0-0-0-10h12-0-0-|
        . . . .       . . . .       . .       . . . .       . . . .       . .
d|----------------------------------------------------------------------------|
a|----------------------------------------------------------------------------|
f|----------------------------------------------------------------------------|
c|----------------------------------------------------------------------------|
g|----------------------------------------------------------------------------|
c|7h8-0-0-0-0-7h8-0-0-0-0-7h8-0-0-8h10-0-0-10h12-0-0-12h14-0-0-14h15-0-0------|
      . . . .     . . . .     . .      . .       . .       . .       . .
d|----------------------------------------------------------------------------|
a|----------------------------------------------------------------------------|
f|----------------------------------------------------------------------------|
c|----------------------------------------------------------------------------|
g|----------------------------------------------------------------------------|
c|10h12-0-0-0-0-10h12-0-0-0-0-10h12-0-0-10h12-0-0-0-0-10h12-0-0-0-0-10h12-0-0-|
        . . . .       . . . .       . .       . . . .       . . . .       . .
d|----------------------------------------------------------------------------|
a|----------------------------------------------------------------------------|
f|----------------------------------------------------------------------------|
c|----------------------------------------------------------------------------|
g|----------------------------------------------------------------------------|
c|7h8-0-0-0-0-7h8-0-0-0-0-7h8-0-0-8h10-0-0-10h12-0-0-12h14-0-0-14h15-0-0------|
      . . . .     . . . .     . .      . .       . .       . .       . .

Pre chorus

d|------------------------------------------------------------------|
a|------------------------------------------------------------------|
f|----------------10-10-9-9-7-7/9-----------------------------------|
c|5--5-5-5-5--5-5-x--x--x-x-x-x-x--5--5-5-5-5--5-5--8-8-8-8--10--10-|
g|5--5-5-5-5--5-5-8--8--7-7-5-5/7--5--5-5-5-5--5-5--8-8-8-8--10--10-|
c|5--5-5-5-5--5-5------------------5--5-5-5-5--5-5--8-8-8-8--10--10-|
     . . .			      .	. .
Chorus 1 (couldnt get all of the lead work so just left it for now)

d|--------------------------------------------------------|
a|--------------------------------------------------------|
f|------------------------------------------------------12|
c|0-0-0-0-0-0-0-0-0-0-0-0-0-0-3-3-3-3-3-3-3-3-3-3-3-3-x--x|
g|0-0-0-0-0-0-0-0-0-0-0-0-0-0-3-3-3-3-3-3-3-3-3-3-3-3-x-10|
c|0-0-0-0-0-0-0-0-0-0-0-0-0-0-3-3-3-3-3-3-3-3-3-3-3-3-x---|
			                              .

d|----------------------------------------------------------------------|
a|----------------------------------------------------------------------|
f|----------------------------------------------------------------------|
c|8-8-8-8-8-8-8-8-8-8-8-8-8-8-10-10-10-10-10-10-10-10-10-10-10-10-10-10-|
g|8-8-8-8-8-8-8-8-8-8-8-8-8-8-10-10-10-10-10-10-10-10-10-10-10-10-10-10-|
c|8-8-8-8-8-8-8-8-8-8-8-8-8-8-10-10-10-10-10-10-10-10-10-10-10-10-10-10-|
	                . . .			               .  .  .
d|--------------------------------------------------------|
a|--------------------------------------------------------|
f|------------------------------------------------------12|
c|0-0-0-0-0-0-0-0-0-0-0-0-0-0-3-3-3-3-3-3-3-3-3-3-3-3-x--x|
g|0-0-0-0-0-0-0-0-0-0-0-0-0-0-3-3-3-3-3-3-3-3-3-3-3-3-x-10|
c|0-0-0-0-0-0-0-0-0-0-0-0-0-0-3-3-3-3-3-3-3-3-3-3-3-3-x---|

d|----------------------------------------------------------------------|
a|----------------------------------------------------------------------|
f|----------------------------------------------------------------------|
c|8-8-8-8-8-8-8-8-8-8-8-8-8-8-10-10-10-10-10-10-10-10-10-10-10-10-10-10-|
g|8-8-8-8-8-8-8-8-8-8-8-8-8-8-10-10-10-10-10-10-10-10-10-10-10-10-10-10-|
c|8-8-8-8-8-8-8-8-8-8-8-8-8-8-10-10-10-10-10-10-10-10-10-10-10-10-10-10-|

Post chorus

d|-----------------------------------------------------|
a|-----------------------------------------------------|
f|----------10-10-10-10----------------12-12-12-12-----|
c|10h12-0-0-x--x--x--x--0-0-10h12p10p0-x--x--x--x--0-0-|
g|10h12-0-0-8--8--8--8--0-0-10h12p10p0-10-10-10-10-0-0-|
c|10h12-0-0-------------0-0-10h12p10p0-------------0-0-|

d|-----------------------------------------------------|
a|-----------------------------------------------------|
f|-----------------------------------------------------|
c|7-8-8-8-8--------------------------------------------|
g|7-8-8-8-8--------------------------------------------|
c|7-8-8-8-8-0-0-8h10-0-0-10h12-0-0-12h14-0-0-14h15-0-0-|
            . .      . .       . .       . .       . .
d|---------------------------------------------|
a|---------------------------------------------|
f|---------------------------------------------|
c|---------------------------------------------|
g|---------------------------------------------|
c|8-8-8-8-10-10-10-10-12-12-12-12-14-14-14-14--|
  . . . . .  .  .  .  .  .  .  .  .  .  .  .
Verse 2

d|----------------------------------------------------------------------------|
a|----------------------------------------------------------------------------|
f|----------------------------------------------------------------------------|
c|----------------------------------------------------------------------------|
g|----------------------------------------------------------------------------|
c|10h12-0-0-0-0-10h12-0-0-0-0-10h12-0-0-10h12-0-0-0-0-10h12-0-0-0-0-10h12-0-0-|
        . . . .       . . . .       . .       . . . .       . . . .       . .
d|----------------------------------------------------------------------------|
a|----------------------------------------------------------------------------|
f|----------------------------------------------------------------------------|
c|----------------------------------------------------------------------------|
g|----------------------------------------------------------------------------|
c|7h8-0-0-0-0-7h8-0-0-0-0-7h8-0-0-8h10-0-0-10h12-0-0-12h14-0-0-14h15-0-0------|
      . . . .     . . . .     . .      . .       . .       . .       . .
d|----------------------------------------------------------------------------|
a|----------------------------------------------------------------------------|
f|----------------------------------------------------------------------------|
c|----------------------------------------------------------------------------|
g|----------------------------------------------------------------------------|
c|10h12-0-0-0-0-10h12-0-0-0-0-10h12-0-0-10h12-0-0-0-0-10h12-0-0-0-0-10h12-0-0-|
        . . . .       . . . .       . .       . . . .       . . . .       . .
d|----------------------------------------------------------------------------|
a|----------------------------------------------------------------------------|
f|----------------------------------------------------------------------------|
c|----------------------------------------------------------------------------|
g|----------------------------------------------------------------------------|
c|7h8-0-0-0-0-7h8-0-0-0-0-7h8-0-0-8h10-0-0-10h12-0-0-12h14-0-0-14h15-0-0------|
      . . . .     . . . .     . .      . .       . .       . .       . .
Pre chorus

d|------------------------------------------------------------------|
a|------------------------------------------------------------------|
f|----------------10-10-9-9-7-7/9-----------------------------------|
c|5--5-5-5-5--5-5-x--x--x-x-x-x-x--5--5-5-5-5--5-5--8-8-8-8--10--10-|
g|5--5-5-5-5--5-5-8--8--7-7-5-5/7--5--5-5-5-5--5-5--8-8-8-8--10--10-|
c|5--5-5-5-5--5-5------------------5--5-5-5-5--5-5--8-8-8-8--10--10-|

Chorus 2

d|--------------------------------------------------------|
a|--------------------------------------------------------|
f|------------------------------------------------------12|
c|0-0-0-0-0-0-0-0-0-0-0-0-0-0-3-3-3-3-3-3-3-3-3-3-3-3-x--x|
g|0-0-0-0-0-0-0-0-0-0-0-0-0-0-3-3-3-3-3-3-3-3-3-3-3-3-x-10|
c|0-0-0-0-0-0-0-0-0-0-0-0-0-0-3-3-3-3-3-3-3-3-3-3-3-3-x---|
			                              .

d|----------------------------------------------------------------------|
a|----------------------------------------------------------------------|
f|----------------------------------------------------------------------|
c|8-8-8-8-8-8-8-8-8-8-8-8-8-8-10-10-10-10-10-10-10-10-10-10-10-10-10-10-|
g|8-8-8-8-8-8-8-8-8-8-8-8-8-8-10-10-10-10-10-10-10-10-10-10-10-10-10-10-|
c|8-8-8-8-8-8-8-8-8-8-8-8-8-8-10-10-10-10-10-10-10-10-10-10-10-10-10-10-|
	                . . .			               .  .  .
d|--------------------------------------------------------|
a|--------------------------------------------------------|
f|------------------------------------------------------12|
c|0-0-0-0-0-0-0-0-0-0-0-0-0-0-3-3-3-3-3-3-3-3-3-3-3-3-x--x|
g|0-0-0-0-0-0-0-0-0-0-0-0-0-0-3-3-3-3-3-3-3-3-3-3-3-3-x-10|
c|0-0-0-0-0-0-0-0-0-0-0-0-0-0-3-3-3-3-3-3-3-3-3-3-3-3-x---|

d|----------------------------------------------------------------------|
a|----------------------------------------------------------------------|
f|----------------------------------------------------------------------|
c|8-8-8-8-8-8-8-8-8-8-8-8-8-8-10-10-10-10-10-10-10-10-10-10-10-10-10-10-|
g|8-8-8-8-8-8-8-8-8-8-8-8-8-8-10-10-10-10-10-10-10-10-10-10-10-10-10-10-|
c|8-8-8-8-8-8-8-8-8-8-8-8-8-8-10-10-10-10-10-10-10-10-10-10-10-10-10-10-|

Breakdown

d|-----------------------------------------------------------------|
a|-----------------------------------------------------------------|
f|----------------------------------------------------10-10-10-10x-|
c|12\-0--0-12\-0--0-----------------12\-0--0-12\-0--0-x--x--x--x-x-|
g|12\-00-0-12\-0-00------8-------10-12\-00-0-12\-0-00-8--8--8--8-x-|
c|12\-00-0-12\-0-00-8-10---10-12----12\-00-0-12\-0-00--------------|
      .. .     . .  . .  . .  .  . .. .     . .  . .
d|--------------------------------------------------------------------------------------|
a|--------------------------------------------------------------------------------------|
f|--------------------------------------------------------------------------------------|
c|12\-0--0-12\-0--0-----------------12\-0--0-12\-0--0-----------------------------------|
g|12\-00-0-12\-0-00------8-------10-12\-00-0-12\-0-00------8-------10-------12-------15-|
c|12\-00-0-12\-0-00-8-10---10-12----12\-00-0-12\-0-00-8-10---10-12----12-14----14-15----|
      .. .     . .  . .  . .  .  . .. .     . .  . .  . .  . .  .  .  .  .  .  .

d|-----------------------------------------------------------------------|
a|-----------------------------------------------------------------------|
f|----------------------------------9~-----------------------------------|
c|0~--------------------------------x------------------------------------|
g|0~--------------------------------7~-----------------------------------|
c|0~---------------------------------------------------------------------|

Solo

d|-----------------------------------------------------------------------|
a|-----------------------------------------------------------------------|
f|---------19------------------------------------------------------------|
c|------19----19-20-------19b20b19-17-------17-19-17-20-19-19~-----------|
g|17-20-------------17-20-------------15-17------------------------------|
c|-----------------------------------------------------------------------|

d|-----------------------------------------------------------------------|
a|-----------------------------------------------------------------------|
f|---------19-21-22------------------------------------------------------|
c|------19----------------19-17-19-20-------17-19-17-20-19-17-15-12~-----|
g|17-20-------------17-20-------------15-17------------------------------|
c|-----------------------------------------------------------------------|

d|-----------------------------------------------------------------------|
a|8-----10-----11---10h11p10------------------13------13------------15---|
f|--0-0----0-0----0----------12-10-9-7~--9-10----9-10----9-10-10-12------|
c|-----------------------------------------------------------------------|
g|-----------------------------------------------------------------------|
c|-----------------------------------------------------------------------|

d|-----------------------------------------------------------------------|
a|------15-10-11-8-----10-----11---10h11p10------------------------------|
f|10-12------------0-0----0-0----0----------12-10-9-7~--8~-8/10~-10/12~--|
c|-----------------------------------------------------------------------|
g|-----------------------------------------------------------------------|
c|-----------------------------------------------------------------------|

d|-----------------------------------------------------------------------|
a|---------------------------------------------------------18~-----------|
f|12-12-12-14-15-14-12-15-14-1212~-12/14-14-15-15/17-17/19---------------|
c|-----------------------------------------------------------------------|
g|-----------------------------------------------------------------------|
c|-----------------------------------------------------------------------|

Chorus 3

d|--------------------------------------------------------|
a|--------------------------------------------------------|
f|------------------------------------------------------12|
c|0-0-0-0-0-0-0-0-0-0-0-0-0-0-3-3-3-3-3-3-3-3-3-3-3-3-x--x|
g|0-0-0-0-0-0-0-0-0-0-0-0-0-0-3-3-3-3-3-3-3-3-3-3-3-3-x-10|
c|0-0-0-0-0-0-0-0-0-0-0-0-0-0-3-3-3-3-3-3-3-3-3-3-3-3-x---|
			                              .

d|----------------------------------------------------------------------|
a|----------------------------------------------------------------------|
f|----------------------------------------------------------------------|
c|8-8-8-8-8-8-8-8-8-8-8-8-8-8-10-10-10-10-10-10-10-10-10-10-10-10-10-10-|
g|8-8-8-8-8-8-8-8-8-8-8-8-8-8-10-10-10-10-10-10-10-10-10-10-10-10-10-10-|
c|8-8-8-8-8-8-8-8-8-8-8-8-8-8-10-10-10-10-10-10-10-10-10-10-10-10-10-10-|
	                . . .			               .  .  .
d|--------------------------------------------------------|
a|--------------------------------------------------------|
f|------------------------------------------------------12|
c|0-0-0-0-0-0-0-0-0-0-0-0-0-0-3-3-3-3-3-3-3-3-3-3-3-3-x--x|
g|0-0-0-0-0-0-0-0-0-0-0-0-0-0-3-3-3-3-3-3-3-3-3-3-3-3-x-10|
c|0-0-0-0-0-0-0-0-0-0-0-0-0-0-3-3-3-3-3-3-3-3-3-3-3-3-x---|

d|----------------------------------------------------------------------|
a|----------------------------------------------------------------------|
f|----------------------------------------------------------------------|
c|8-8-8-8-8-8-8-8-8-8-8-8-8-8-10-10-10-10-10-10-10-10-10-10-10-10-10-10-|
g|8-8-8-8-8-8-8-8-8-8-8-8-8-8-10-10-10-10-10-10-10-10-10-10-10-10-10-10-|
c|8-8-8-8-8-8-8-8-8-8-8-8-8-8-10-10-10-10-10-10-10-10-10-10-10-10-10-10-|

Outro
[ Tab from: http://www.guitaretab.com/s/senses-fail/176320.html ]
d|-----------------------------------------------------------------|
a|-----------------------------------------------------------------|
f|----------------------------------------------------10-10-10-10x-|
c|12\-0--0-12\-0--0-----------------12\-0--0-12\-0--0-x--x--x--x-x-|
g|12\-00-0-12\-0-00------8-------10-12\-00-0-12\-0-00-8--8--8--8-x-|
c|12\-00-0-12\-0-00-8-10---10-12----12\-00-0-12\-0-00--------------|
      .. .     . .  . .  . .  .  . .. .     . .  . .

Left guitar
--------------

Intro

d|----------------------------------------------------------------------|
a|----------------------------------------------------------------------|
f|----------------------------------------------------------------------|
c|-10h12p10p0-0-0-0-0-0-0-0-0-0-10h12p10p0-10-10-0-10-10-10-10-10-10-10-|
g|-10h12p10p0-0-0-0-0-0-0-0-0-0-10h12p10p0-10-10-0-10-10-10-10-10-10-10-|
c|-10h12p10p0-0-0-0-0-0-0-0-0-0-10h12p10p0-10-10-0-10-10-10-10-10-10-10-|

d|-----------------------------------------------------|
a|-----------------------------------------------------|
f|-----------------------------------------------------|
c|7-8-8-8-8--------------------------------------------|
g|7-8-8-8-8--------------------------------------------|
c|7-8-8-8-8-0-0-8h10-0-0-10h12-0-0-12h14-0-0-14h15-0-0-|
            . .      . .       . .       . .       . .

Verse 1

d|----------------------------------------------------------------------------|
a|----------------------------------------------------------------------------|
f|----------------------------------------------------------------------------|
c|----------------------------------------------------------------------------|
g|----------------------------------------------------------------------------|
c|10h12-0-0-0-0-10h12-0-0-0-0-10h12-0-0-10h12-0-0-0-0-10h12-0-0-0-0-10h12-0-0-|
        . . . .       . . . .       . .       . . . .       . . . .       . .
d|----------------------------------------------------------------------------|
a|----------------------------------------------------------------------------|
f|----------------------------------------------------------------------------|
c|----------------------------------------------------------------------------|
g|----------------------------------------------------------------------------|
c|7h8-0-0-0-0-7h8-0-0-0-0-7h8-0-0-8h10-0-0-10h12-0-0-12h14-0-0-14h15-0-0------|
      . . . .     . . . .     . .      . .       . .       . .       . .
d|-------------------------------------------------------------------|
a|-------------------------------------------------------------------|
f|-------------------------------------------------------------------|
c|-------------------------------------------------------------------|
g|7h8---------7h8---------7h8-----7h8---------7h8---------7h8--------|
c|----0-0-0-0-----0-0-0-0-----0-0-----0-0-0-0-----0-0-0-0-----0-0----|
      . . . .     . . . .     . .     . . . .     . . . .     . .
d|-------------------------------------------------------------------|
a|-------------------------------------------------------------------|
f|-------------------------------------------------------------------|
c|-------------------------------------------------------------------|
g|3h5---------3h5---------3h5-----5h7-----7h8-----8h10-----10h12-----|
c|----0-0-0-0-----0-0-0-0-----0-0-----0-0-----0-0------0-0-------0-0-|
      . . . .     . . . .     . .     . .     . .      . .       . .

Pre chorus

d|----------------------------------------------------------------------|
a|----------------------------------------------------------------------|
f|-----------------------------5-5-5-5--------------------10-9\7-12\-10-|
c|5--5-5-5-5--5-5-5-5x-3-3-3-3-5-5-5-5-5--5-5-5-5--5-5-x--x--x-x-x---x--|
g|5--5-5-5-5--5-5-5-5x-3-3-3-3-3-3-3-3-5--5-5-5-5--5-5-x--8--7\5-10\-8--|
c|5--5-5-5-5--5-5-5-5x-3-3-3-3---------5--5-5-5-5--5-5-x----------------|

Chorus 1

d|--------------------------------------------------------|
a|--------------------------------------------------------|
f|------------------------------------------------------12|
c|0-0-0-0-0-0-0-0-0-0-0-0-0-0-3-3-3-3-3-3-3-3-3-3-3-3-x--x|
g|0-0-0-0-0-0-0-0-0-0-0-0-0-0-3-3-3-3-3-3-3-3-3-3-3-3-x-10|
c|0-0-0-0-0-0-0-0-0-0-0-0-0-0-3-3-3-3-3-3-3-3-3-3-3-3-x---|
			                              .

d|----------------------------------------------------------------------|
a|----------------------------------------------------------------------|
f|----------------------------------------------------------------------|
c|8-8-8-8-8-8-8-8-8-8-8-8-8-8-10-10-10-10-10-10-10-10-10-10-10-10-10-10-|
g|8-8-8-8-8-8-8-8-8-8-8-8-8-8-10-10-10-10-10-10-10-10-10-10-10-10-10-10-|
c|8-8-8-8-8-8-8-8-8-8-8-8-8-8-10-10-10-10-10-10-10-10-10-10-10-10-10-10-|
	                . . .			               .  .  .
d|--------------------------------------------------------|
a|--------------------------------------------------------|
f|------------------------------------------------------12|
c|0-0-0-0-0-0-0-0-0-0-0-0-0-0-3-3-3-3-3-3-3-3-3-3-3-3-x--x|
g|0-0-0-0-0-0-0-0-0-0-0-0-0-0-3-3-3-3-3-3-3-3-3-3-3-3-x-10|
c|0-0-0-0-0-0-0-0-0-0-0-0-0-0-3-3-3-3-3-3-3-3-3-3-3-3-x---|

d|----------------------------------------------------------------------|
a|----------------------------------------------------------------------|
f|----------------------------------------------------------------------|
c|8-8-8-8-8-8-8-8-8-8-8-8-8-8-10-10-10-10-10-10-10-10-10-10-10-10-10-10-|
g|8-8-8-8-8-8-8-8-8-8-8-8-8-8-10-10-10-10-10-10-10-10-10-10-10-10-10-10-|
c|8-8-8-8-8-8-8-8-8-8-8-8-8-8-10-10-10-10-10-10-10-10-10-10-10-10-10-10-|

Post chorus

d|----------------------------------------------------------------------|
a|----------------------------------------------------------------------|
f|----------------------------------------------------------------------|
c|-10h12p10p0-0-0-0-0-0-0-0-0-0-10h12p10p0-10-10-0-10-10-10-10-10-10-10-|
g|-10h12p10p0-0-0-0-0-0-0-0-0-0-10h12p10p0-10-10-0-10-10-10-10-10-10-10-|
c|-10h12p10p0-0-0-0-0-0-0-0-0-0-10h12p10p0-10-10-0-10-10-10-10-10-10-10-|

d|-----------------------------------------------------|
a|-----------------------------------------------------|
f|-----------------------------------------------------|
c|7-8-8-8-8--------------------------------------------|
g|7-8-8-8-8--------------------------------------------|
c|7-8-8-8-8-0-0-8h10-0-0-10h12-0-0-12h14-0-0-14h15-0-0-|
            . .      . .       . .       . .       . .			     .
(not entirely sure on this harmony, i may be imagining things ;p )
d|------------------------------------|
a|------------------------------------|
f|------------------------------------|
c|------------------------------------|
g|5-5-5-5-7-7-7-7-8-8-8-8-10-10-10-10-|
c|------------------------------------|
  . . . . . . . . . . . . .  .  .  .

Verse 2

d|----------------------------------------------------------------------------|
a|----------------------------------------------------------------------------|
f|----------------------------------------------------------------------------|
c|----------------------------------------------------------------------------|
g|----------------------------------------------------------------------------|
c|10h12-0-0-0-0-10h12-0-0-0-0-10h12-0-0-10h12-0-0-0-0-10h12-0-0-0-0-10h12-0-0-|
        . . . .       . . . .       . .       . . . .       . . . .       . .
d|----------------------------------------------------------------------------|
a|----------------------------------------------------------------------------|
f|----------------------------------------------------------------------------|
c|----------------------------------------------------------------------------|
g|----------------------------------------------------------------------------|
c|7h8-0-0-0-0-7h8-0-0-0-0-7h8-0-0-8h10-0-0-10h12-0-0-12h14-0-0-14h15-0-0------|
      . . . .     . . . .     . .      . .       . .       . .       . .
d|-------------------------------------------------------------------|
a|-------------------------------------------------------------------|
f|-------------------------------------------------------------------|
c|-------------------------------------------------------------------|
g|7h8---------7h8---------7h8-----7h8---------7h8---------7h8--------|
c|----0-0-0-0-----0-0-0-0-----0-0-----0-0-0-0-----0-0-0-0-----0-0----|
      . . . .     . . . .     . .     . . . .     . . . .     . .
d|-------------------------------------------------------------------|
a|-------------------------------------------------------------------|
f|-------------------------------------------------------------------|
c|-------------------------------------------------------------------|
g|3h5---------3h5---------3h5-----5h7-----7h8-----8h10-----10h12-----|
c|----0-0-0-0-----0-0-0-0-----0-0-----0-0-----0-0------0-0-------0-0-|
      . . . .     . . . .     . .     . .     . .      . .       . .

Pre chorus

d|----------------------------------------------------------------------|
a|----------------------------------------------------------------------|
f|-----------------------------5-5-5-5--------------------10-9\7-12\-10-|
c|5--5-5-5-5--5-5-5-5x-3-3-3-3-5-5-5-5-5--5-5-5-5--5-5-x--x--x-x-x---x--|
g|5--5-5-5-5--5-5-5-5x-3-3-3-3-3-3-3-3-5--5-5-5-5--5-5-x--8--7\5-10\-8--|
c|5--5-5-5-5--5-5-5-5x-3-3-3-3---------5--5-5-5-5--5-5-x----------------|

Chorus 2

d|--------------------------------------------------------|
a|--------------------------------------------------------|
f|------------------------------------------------------12|
c|0-0-0-0-0-0-0-0-0-0-0-0-0-0-3-3-3-3-3-3-3-3-3-3-3-3-x--x|
g|0-0-0-0-0-0-0-0-0-0-0-0-0-0-3-3-3-3-3-3-3-3-3-3-3-3-x-10|
c|0-0-0-0-0-0-0-0-0-0-0-0-0-0-3-3-3-3-3-3-3-3-3-3-3-3-x---|
			                              .

d|----------------------------------------------------------------------|
a|----------------------------------------------------------------------|
f|----------------------------------------------------------------------|
c|8-8-8-8-8-8-8-8-8-8-8-8-8-8-10-10-10-10-10-10-10-10-10-10-10-10-10-10-|
g|8-8-8-8-8-8-8-8-8-8-8-8-8-8-10-10-10-10-10-10-10-10-10-10-10-10-10-10-|
c|8-8-8-8-8-8-8-8-8-8-8-8-8-8-10-10-10-10-10-10-10-10-10-10-10-10-10-10-|
	                . . .			               .  .  .
d|--------------------------------------------------------|
a|--------------------------------------------------------|
f|------------------------------------------------------12|
c|0-0-0-0-0-0-0-0-0-0-0-0-0-0-3-3-3-3-3-3-3-3-3-3-3-3-x--x|
g|0-0-0-0-0-0-0-0-0-0-0-0-0-0-3-3-3-3-3-3-3-3-3-3-3-3-x-10|
c|0-0-0-0-0-0-0-0-0-0-0-0-0-0-3-3-3-3-3-3-3-3-3-3-3-3-x---|

d|----------------------------------------------------------------------|
a|----------------------------------------------------------------------|
f|----------------------------------------------------------------------|
c|8-8-8-8-8-8-8-8-8-8-8-8-8-8-10-10-10-10-10-10-10-10-10-10-10-10-10-10-|
g|8-8-8-8-8-8-8-8-8-8-8-8-8-8-10-10-10-10-10-10-10-10-10-10-10-10-10-10-|
c|8-8-8-8-8-8-8-8-8-8-8-8-8-8-10-10-10-10-10-10-10-10-10-10-10-10-10-10-|

Breakdown

d|-----------------------------------------------------------------|
a|-----------------------------------------------------------------|
f|----------------------------------------------------10-10-10-10x-|
c|12\-0--0-12\-0--0-----------------12\-0--0-12\-0--0-x--x--x--x-x-|
g|12\-00-0-12\-0-00------8-------10-12\-00-0-12\-0-00-8--8--8--8-x-|
c|12\-00-0-12\-0-00-8-10---10-12----12\-00-0-12\-0-00--------------|
      .. .     . .  . .  . .  .  . .. .     . .  . .
d|--------------------------------------------------------------------------------------|
a|--------------------------------------------------------------------------------------|
f|--------------------------------------------------------------------------------------|
c|12\-0--0-12\-0--0-----------------12\-0--0-12\-0--0-----------------------------------|
g|12\-00-0-12\-0-00------8-------10-12\-00-0-12\-0-00------8-------10-------12-------15-|
c|12\-00-0-12\-0-00-8-10---10-12----12\-00-0-12\-0-00-8-10---10-12----12-14----14-15----|
      .. .     . .  . .  . .  .  . .. .     . .  . .  . .  . .  .  .  .  .  .  .

d|-----------------------------------------------------------------------|
a|-----------------------------------------------------------------------|
f|----------------------------------12~----------------------------------|
c|0~--------------------------------x------------------------------------|
g|0~--------------------------------10~----------------------------------|
c|0~---------------------------------------------------------------------|

Solo

d|-----------------------------------------------------------------------|
a|-----------------------------------------------------------------------|
f|-----------------------------------------------------------------------|
c|0--0-0-0-0--0-0-5--5-5-5-5--5-5-10--10-10-10-10--10-10-7--7-7-7-7--7-7-|
g|0--0-0-0-0--0-0-5--5-5-5-5--5-5-10--10-10-10-10--10-10-8--8-8-8-8--8-8-|
c|0--0-0-0-0--0-0-5--5-5-5-5--5-5-10--10-10-10-10--10-10-7--7-7-7-7--7-7-|
     . . .       . . .	      .  .  .	 .  .      .  .	    . .	.    . .
d|-----------------------------------------------------------------------|
a|-----------------------------------------------------------------------|
f|-----------------------------------------------------------------------|
c|0--0-0-0-0--0-0-5--5-5-5-5--5-5-10--10-10-10-10--10-10-7--7-7-7-7--7-7-|
g|0--0-0-0-0--0-0-5--5-5-5-5--5-5-10--10-10-10-10--10-10-8--8-8-8-8--8-8-|
c|0--0-0-0-0--0-0-5--5-5-5-5--5-5-10--10-10-10-10--10-10-7--7-7-7-7--7-7-|
     . . .       . . .	      .  .  .	 .  .      .  .	    . .	.    . .
(can't work out what is being played here)
d|-----------------------------------------------------------------------|
a|-----------------------------------------------------------------------|
f|-----------------------------------------------------------------------|
c|-----------------------------------------------------------------------|
g|-----------------------------------------------------------------------|
c|-----------------------------------------------------------------------|

d|-----------------------------------------------------------------------|
a|-----------------------------------------------------------------------|
f|-----------------------------------------------------------------------|
c|1--1-1-1-1-------------------------------------------------------------|
g|1--1-1-1-1--etc... until final chorus----------------------------------|
c|1--1-1-1-1-------------------------------------------------------------|
     . . .

Chorus 3

d|--------------------------------------------------------|
a|--------------------------------------------------------|
f|------------------------------------------------------12|
c|0-0-0-0-0-0-0-0-0-0-0-0-0-0-3-3-3-3-3-3-3-3-3-3-3-3-x--x|
g|0-0-0-0-0-0-0-0-0-0-0-0-0-0-3-3-3-3-3-3-3-3-3-3-3-3-x-10|
c|0-0-0-0-0-0-0-0-0-0-0-0-0-0-3-3-3-3-3-3-3-3-3-3-3-3-x---|
			                              .

d|----------------------------------------------------------------------|
a|----------------------------------------------------------------------|
f|----------------------------------------------------------------------|
c|8-8-8-8-8-8-8-8-8-8-8-8-8-8-10-10-10-10-10-10-10-10-10-10-10-10-10-10-|
g|8-8-8-8-8-8-8-8-8-8-8-8-8-8-10-10-10-10-10-10-10-10-10-10-10-10-10-10-|
c|8-8-8-8-8-8-8-8-8-8-8-8-8-8-10-10-10-10-10-10-10-10-10-10-10-10-10-10-|
	                . . .			               .  .  .
d|--------------------------------------------------------|
a|--------------------------------------------------------|
f|------------------------------------------------------12|
c|0-0-0-0-0-0-0-0-0-0-0-0-0-0-3-3-3-3-3-3-3-3-3-3-3-3-x--x|
g|0-0-0-0-0-0-0-0-0-0-0-0-0-0-3-3-3-3-3-3-3-3-3-3-3-3-x-10|
c|0-0-0-0-0-0-0-0-0-0-0-0-0-0-3-3-3-3-3-3-3-3-3-3-3-3-x---|

d|----------------------------------------------------------------------|
a|----------------------------------------------------------------------|
f|----------------------------------------------------------------------|
c|8-8-8-8-8-8-8-8-8-8-8-8-8-8-10-10-10-10-10-10-10-10-10-10-10-10-10-10-|
g|8-8-8-8-8-8-8-8-8-8-8-8-8-8-10-10-10-10-10-10-10-10-10-10-10-10-10-10-|
c|8-8-8-8-8-8-8-8-8-8-8-8-8-8-10-10-10-10-10-10-10-10-10-10-10-10-10-10-|

Outro

d|-----------------------------------------------------------------|
a|-----------------------------------------------------------------|
f|----------------------------------------------------10-10-10-10x-|
c|12\-0--0-12\-0--0-----------------12\-0--0-12\-0--0-x--x--x--x-x-|
g|12\-00-0-12\-0-00------8-------10-12\-00-0-12\-0-00-8--8--8--8-x-|
c|12\-00-0-12\-0-00-8-10---10-12----12\-00-0-12\-0-00--------------|
      .. .     . .  . .  . .  .  . .. .     . .  . .
Related for Lungs Like Gallows tab