Song name
# A B C D E F G H I J K L M N O P Q R S T U V W X Y Z

Senses Fail - Yellow Angels tab

-------------------------------------------------------------------------------
			Yellow Angels - Senses Fail
-------------------------------------------------------------------------------
Tabbed by:Phat Stud 55
Email:phatstud55@gmail.com

Tuning:Drop C Low to high (CGCFAd)

Pre-Song notes:
All parts that are connected with a | are played at the same time.
  *notes to playing intro on the bottom.
Intro
 Synth
d|--13--------|
A|--15--------|
F|--15--------|
C|------------|x4 (only strum on first time)
G|------------|
C|------------|
 |Clean
d|------------13----------12--------------------------|
A|-------------------------------------13----15-------|
F|-----14-----------14-----------14---------------14--|
C|--15----15-----15----15-----15----15---------15-----|x4
G|----------------------------------------------------|
C|----------------------------------------------------|
 Bass and Synth Voice Enter
d|------------13----------12--------------------------|
A|-------------------------------------13----15-------|
F|-----14-----------14-----------14---------------14--|
C|--15----15-----15----15-----15----15---------15-----|x4
G|----------------------------------------------------|
C|----------------------------------------------------|
 |Light distortion
d|-------------------------------------8--------------|
A|------------------------10--------------------------|
F|------------10--------------------------------------|
C|----let ring****************************************|x4
G|----------------------------------------------------|
C|----------------------------------------------------|
__________________________________________________________________________
Verse
d|------------13----------12--------------------------|
A|-------------------------------------13----15-------|
F|-----14-----------14-----------14---------------14--|
C|--15----15-----15----15-----15----15---------15-----|x4
G|----------------------------------------------------|
C|----------------------------------------------------|
 |Light distortion
d|-------------------------------------8--------------|
A|------------------------10--------------------------|
F|------------10--------------------------------------|
C|----let ring****************************************|x4
G|----------------------------------------------------|
C|----------------------------------------------------|
 |Bells (one octave up)
d|----------------------------------------------------|
A|------------18----------17--------------------------|
F|-------------------------------------17----19-------|
C|------------------------------------------------19--|x4
G|----------------------------------------------------|
C|----------------------------------------------------|

d|------------13----------12--------------------------|
A|-------------------------------------13----15-------|
F|-----14-----------14-----------14---------------14--|
C|--15----15-----15----15-----15----15---------15-----|
G|----------------------------------------------------|
C|----------------------------------------------------|
 |clean
d|----------------------------------------------------|
A|----------------------------------------------------|
F|----------------------------------------------------|
C|--3--3--3---3--3--3--3--3---3--3--3--3--3--3-3--3---|
G|--3--3--3---3--3--3--3--3---3--3--3--3--3--3-3--3---|
C|--3--3--3---3--3--3--3--3---3--3--3--3--3--3-3--3---|

d|------------13----------12--------------------------|
A|-------------------------------------13----15-------|
F|-----14-----------14-----------14---------------14--|
C|--15----15-----15----15-----15----15---------15-----|
G|----------------------------------------------------|
C|----------------------------------------------------|
 |clean
d|----------------------------------------------------|
A|----------------------------------------------------|
F|----------------------------------------------------|
C|--5--5--5---5--5--5--5--5---5--5--5--5--5--5-5--5---|
G|--5--5--5---5--5--5--5--5---5--5--5--5--5--5-5--5---|
C|--5--5--5---5--5--5--5--5---5--5--5--5--5--5-5--5---|

d|------------13----------12--------------------------|
A|-------------------------------------13----15-------|
F|-----14-----------14-----------14---------------14--|
C|--15----15-----15----15-----15----15---------15-----|
G|----------------------------------------------------|
C|----------------------------------------------------|
 |clean
d|----------------------------------------------------|
A|----------------------------------------------------|
F|----------------------------------------------------|
C|--3--3--3---3--3--3--3--3---3--3--3--3--3--3-3--3---|
G|--3--3--3---3--3--3--3--3---3--3--3--3--3--3-3--3---|
C|--3--3--3---3--3--3--3--3---3--3--3--3--3--3-3--3---|

d|------------13----------12--------------------------|
A|-------------------------------------13----15-------|
F|-----14-----------14-----------14---------------14--|
C|--15----15-----15----15-----15----15---------15-----|
G|----------------------------------------------------|
C|----------------------------------------------------|
 |clean
d|----------------------------------------------------|
A|----------------------------------------------------|
F|----------------------------------------------------|
C|--5--5--5---5--5--5--5--5---5--5--5--5--5--5-5--5---|
G|--5--5--5---5--5--5--5--5---5--5--5--5--5--5-5--5---|
C|--5--5--5---5--5--5--5--5---5--5--5--5--5--5-5--5---|
__________________________________________________________________________
Chorus

d|------------------------------------------------------------------|
A|------------------------------------------------------------------|
F|-5-5-5-5-5-5-5-5-5-5-5-5-5-5-5-5-7-7-7-7-7-7-7-7--3-3-3-3-3-3-3-3-|
C|-3-3-3-3-3-3-3-3-3-3-3-3-3-3-3-3-0-0-0-0-0-0-0-0--3-3-3-3-3-3-3-3-|x2
G|-3-3-3-3-3-3-3-3-3-3-3-3-3-3-3-3-0-0-0-0-0-0-0-0--1-1-1-1-1-1-1-1-|
C|-3-3-3-3-3-3-3-3-3-3-3-3-3-3-3-3-0-0-0-0-0-0-0-0------------------|
 P.M                           * *             * *              * *
___________________________________________________________________________
Verse 2

d|------------------------------------------------------------------|
A|------------------------------------------------------------------|
F|-5-5-5-5-5-5-5-5-5-5-5-5-5-5-5-5-7-7-7-7-7-7-7-7-7-7-7-7-7-3-3-3--|
C|-3-3-3-3-3-3-3-3-3-3-3-3-3-3-3-3-0-0-0-0-0-0-0-0-0-0-0-0-0-3-3-3--|
G|-3-3-3-3-3-3-3-3-3-3-3-3-3-3-3-3-0-0-0-0-0-0-0-0-0-0-0-0-0-1-1-1--|
C|-3-3-3-3-3-3-3-3-3-3-3-3-3-3-3-3-0-0-0-0-0-0-0-0-0-0-0-0-0--------|
 P.M   * * * *   * * * *   * * * *   * * * *   * * * *   * *

d|-13-13-13-12-12-12-12-12-10-10-10-10-10-10-10-10-8-8-8-8-8-8-8-8--|
A|------------------------------------------------------------------|
F|------------------------------------------------------------------|
C|------------------------------------------------------------------|
G|------------------------------------------------------------------|
C|------------------------------------------------------------------|

d|------------------------------------------------------------------|
A|------------------------------------------------------------------|
F|-5-5-5-5-5-5-5-5-5-5-5-5-5-5-5-5-7-7-7-7-7-7-7-7-7-7-7-7-7-3-3-3--|
C|-3-3-3-3-3-3-3-3-3-3-3-3-3-3-3-3-0-0-0-0-0-0-0-0-0-0-0-0-0-3-3-3--|
G|-3-3-3-3-3-3-3-3-3-3-3-3-3-3-3-3-0-0-0-0-0-0-0-0-0-0-0-0-0-1-1-1--|
C|-3-3-3-3-3-3-3-3-3-3-3-3-3-3-3-3-0-0-0-0-0-0-0-0-0-0-0-0-0--------|
 P.M   * * * *   * * * *   * * * *   * * * *   * * * *   * *
d|-13------12-----8-10---------13-------12----8-----10-----13----12-|
A|---------------------10------------------------------10-----------|
F|------------------------------------------------------------------|
C|------------------------------------------------------------------|
G|------------------------------------------------------------------|
C|------------------------------------------------------------------|

d|------------13----------12--------------------------|
A|-------------------------------------13----15-------|
F|-----14-----------14-----------14---------------14--|
C|--15----15-----15----15-----15----15---------15-----|
G|----------------------------------------------------|
C|----------------------------------------------------|
 |clean
d|----------------------------------------------------|
A|----------------------------------------------------|
F|----------------------------------------------------|
C|--3--3--3---3--3--3--3--3---3--3--3--3--3--3-3--3---|
G|--3--3--3---3--3--3--3--3---3--3--3--3--3--3-3--3---|
C|--3--3--3---3--3--3--3--3---3--3--3--3--3--3-3--3---|

d|------------13----------12--------------------------|
A|-------------------------------------13----15-------|
F|-----14-----------14-----------14---------------14--|
C|--15----15-----15----15-----15----15---------15-----|
G|----------------------------------------------------|
C|----------------------------------------------------|
 |clean
d|----------------------------------------------------|
A|----------------------------------------------------|
F|----------------------------------------------------|
C|--5--5--5---5--5--5--5--5---5--5--5--5--5--5-5--5---|
G|--5--5--5---5--5--5--5--5---5--5--5--5--5--5-5--5---|
C|--5--5--5---5--5--5--5--5---5--5--5--5--5--5-5--5---|
__________________________________________________________________________
Chorus

d|------------------------------------------------------------------|
A|------------------------------------------------------------------|
F|-5-5-5-5-5-5-5-5-5-5-5-5-5-5-5-5-7-7-7-7-7-7-7-7--3-3-3-3-3-3-3-3-|
C|-3-3-3-3-3-3-3-3-3-3-3-3-3-3-3-3-0-0-0-0-0-0-0-0--3-3-3-3-3-3-3-3-|x2
G|-3-3-3-3-3-3-3-3-3-3-3-3-3-3-3-3-0-0-0-0-0-0-0-0--1-1-1-1-1-1-1-1-|
C|-3-3-3-3-3-3-3-3-3-3-3-3-3-3-3-3-0-0-0-0-0-0-0-0------------------|
 P.M                           * *             * *              * *

Outro
d|---------------------------------------------------|
A|---------------------------------------------------|
F|-------------------------------------------3-3-3-3-|
C|----3----3----3----3------0----0-----00----3-3-3-3-|x3
G|-------------------------------------------1-1-1-1-|
C|-33---3----33---3-----0-0---0-----0-----0----------|

d|---------------------------------------------------|
A|---------------------------------------------------|
F|-5-------------------------------------------------|
C|-3-------------------------------------------------|
G|-3-------------------------------------------------|
C|-3-------------------------------------------------|
 and that's it!

      KEY
_________________
| /  slide up
| \  slide down
| h  hammer-on
| p  pull-off
| ~  vibrato
| +  harmonic
| x  Mute note
_____________________________________________________
*Notes:
The Intro:  If you use the major 7 chord fingering for the intro
you should be good as far as the movements.
Here's what the chord shape looks like, and to the right are the fingers
that you should use.

d|-12-|1
A|-13-|2
F|-14-|3
C|-15-|4
G|----|
C|----|
Now you don't need to play the A string at the 13th fret so use your 2nd
finger on the 13th fret of the D string that way you can place your 1st finger on the 
fret of the D String and just pull-off to the next note.
The rest is up to you how you play.  If this is confusing you, forget that
you ever read it and play it how you like to.

One last note:  There are 3 other ways to play the intro.  I picked this one because the 
are closest together and the fingering is easiest.  If you want the other tabs you can 
them out yourself, or (B) email me and I"ll send you the tabs.

Good Luck and Have fun.

Questions, Comments, Corrections, email me at phatstud55@gmail.com to let me
know.  All credit will be given for corrections.

===============================================================================
Tap to rate this tab
 
# A B C D E F G H I J K L M N O P Q R S T U V W X Y Z