Song name
# A B C D E F G H I J K L M N O P Q R S T U V W X Y Z

Senses Fail - Four Years tab

Four Years
Senses Fail


 (Lead): Distorted

Guitar Tuning: (Drop C)
d||------------------------------|
A||------------------------------|
F||------------------------------|
C||------------------------------|
G||------------------------------|
C||------------------------------|

|---------------------------------------------------------------------------|

Intro / Post-chorus X2
d ||-----------------------------------------------|
A ||-----------------------------------------------|
F ||--101010101010/999--12\14--101010101010/999--5-|
C ||---x-x-x-x-x-x/xxx---x\x---x-x-x-x-x-x-/xxx--x-|
G ||8--8-8-8-8-8-8/777--10\12--8--8-8-8-8-8/777--3-|
C ||-----------------------------------------------|

||--------------------------------|
||--------------------------------|  
||--777-777-777-7-7-77-777-777-5--|
||--xxx-xxx-xxx-x-x-xx-xxx-xxx-x--|
||--555-555-555-5-5-55-555-555-3--|
||--------------------------------|

||-----| |---end-the-intro-with-strumming-and-holding-this---|
||-----|
||-----|
||--3--|
||--3--|
||--3--|
    *
Verse pt. 1  x2     *strum and hold the 1st time only*
||---------------------------------------------|-----|
||---------------------------------------------|-----|
||--999-999-999-9-9-99-999-999-8---------------|-----|
||--xxx-xxx-xxx-x-x-xx-xxx-xxx-x---------------|--3--|
||--777-777-777-7-7-77-777-777-6---------------|--3--|
||---------------------------------------------|--3--|
		                                  *
Verse pt. 2
||----------------------------------------------------|
||----------------------------------------------------|
||--10101010101010101010101010101010/7777777777777777-|
||--x-x-x-x-x-x-x-x-x-x-x-x-x-x-x-x-/xxxxxxxxxxxxxxxx-|
||--8-8-8-8-8-8-8-8-8-8-8-8-8-8-8-8-/5555555555555555-|
||----------------------------------------------------|
play this ^ before and after this v:
||------------------------------------|
||------------------------------------|
||-141414141414/121212121212/10101010-|
||-x-x-x-x-x-x-/-x-x-x-x-x-x/-x-x-x-x-|
||-121212121212/101010101010/-8-8-8-8-|
||------------------------------------|   x2

Chorus   *strum about 16xs*
||-------------------------------------------------------------------------|
||-------------------------------------------------------------------------|
||-------------------------------------------------------------------------|
||-3*----------------0*----------------8*----------------5*----------------|
||-3*----------------0*----------------8*----------------5*----------------|
||-3*----------------0*----------------8*----------------5*----------------|


Post-Chorus

Verse pt 1

Verse pt 2

Chorus x2

Post-Chorus

Bridge  *hold the 3s*
||-----| ||----------------------------------------------------|
||-----| ||----------------------------------------------------|
||-----| ||----------------------------------------------------|
||--3--| ||----------------------------------------------------|
||--3--| ||-12-12-12-13-13-13-15-15-15-15-15-15-15-15-15-15-15-|
||--3--| ||----------------------------------------------------| X2
    *

||----------------------------------------|
||----------------------------------------|
||----------------------------------------|
||----------------------------------------|
||-12-12-12-13-13-13-10-12-10-12-10-12-10-|
||----------------------------------------|

||----------------------------------------------------|
||----------------------------------------------------|
||----------------------------------------------------|
||----------------------------------------------------|
||-12-12-12-13-13-13-15-15-15-15-15-15-15-15-15-15-15-|
||----------------------------------------------------| X2

l-------------------------------------------------l	
l-------------------------------------------------l	
l-------------------------------------------------l	
l-------------------------------------------------l	
l-12-12-12-13-13-13-13-13-15-15-15-15-15-15-15-15-l	
l-------------------------------------------------l

.l----------------------------------------l   |-----|
.l----------------------------------------l   |-----|
.l----------------------------------------l   |-----|
.l----------------------------------------l   |--3--|
.l-12-12-12-13-13-13-10-12-10-12-10-12-10-l   |--3--|
.l----------------------------------------l   |--3--|
                                                 *
Solo pt. 1 –play 2xs-   
|----------------------------------------------------|
|----------------------------------------------------|
|-14-14-14-15-15-15-17-17-17-17-17-17-17-17-17-17-17-|
|----------------------------------------------------|
|----------------------------------------------------|
|----------------------------------------------------|

|-------------------------------------------------|
|-------------------------------------------------|
|-14-12-14-12-14-12-14-12-14-12-14-12-14-12-14-12-|
|-------------------------------------------------|
|-------------------------------------------------|
|-------------------------------------------------|
      *strum and hold the 0s the 2nd time*
|-----|
|-----|
|-----|
|--0--|
|--0--|
|--0--|
   * 

Solo pt. 2 –play 2xs-		
l----------------------------------------------------l         
l----------------------------------------------------l          
l-14-14-14-15-15-15-17-17-17-17-17-17-17-17-17-17-17-l       
l----------------------------------------------------l        
l----------------------------------------------------l        
l----------------------------------------------------l       

|-19-19-19-19-19-19-19-|
|----------------------| 
|----------------------|
|----------------------|
|----------------------|
|----------------------|

l----------------------------------------------------l         
l----------------------------------------------------l          
l-14-14-14-15-15-15-17-17-17-17-17-17-17-17-17-17-17-l       
l----------------------------------------------------l        
l----------------------------------------------------l        
l----------------------------------------------------l 

|-19-19-19-19-17-17-17------------------|
|----------------------19-19-19-20------| 
|----------------------------------21---|
|-------------------------------------22|
|---------------------------------------|
|---------------------------------------|

|-19-19-19-19-19-19-19-17-17------------------|
|----------------------------19-19-19-20------| 
|----------------------------------------21---|
|-------------------------------------------22|
|---------------------------------------------|
|---------------------------------------------|

l-19-19-19-19-19-20-19-20-19-13-l
l-------------------------------l
l-------------------------------l
l-------------------------------l
l-------------------------------l
l-------------------------------l

Solo pt. 3 (outro) X2
l-19-19-19-20-20-20-21-21-21---------------l
l-----------------------------20--20--20---l
l---------------------------19--19--19--19-l
l------------------------------------------l
l------------------------------------------l
l------------------------------------------l X2

l----------------l-19-19-19-19-19-19-19-19-17-17-------------l
l-19-19-20-------l------------------------------19-19-20-----l
l----------21----l--------------------------------------21---l
l-------------21-l----------------------------------------21-l
l----------------l-------------------------------------------l
l----------------l-------------------------------------------l

l-19-19-19-19-19-20-19-20-19-13-l  ** hold fret 13 at the end  |-13~~\\\\-|  
l-------------------------------l
l-------------------------------l
l-------------------------------l
l-------------------------------l
l-------------------------------l
		             **

|---------------------------------------------------------------------------|
Lyrics:

I take a shot of Jameson or Jack to start the morning off with old friends
I'll celebrate like it's the anniversary of the day that we first met
I've been practicing our eulogy, separated all our things.
I took my name off of the lease I'm leaving

'Cause dear, four years hurts less than five.
(And it's never a good time)
I am sorry for all my crimes
And the wandering gaze of my unfaithful eyes

Now I wonder as I am sliding under the subtle control of the drink
If I have enough left in the bottle to say all the things I'm thinking?
I've been practicing my exit plan, nervously checking time
I still don't know how I'll survive

'Cause dear, four years hurts less than five
(And it's never a good time)
I am sorry for all my crimes
And the wandering gaze of my unfaithful eyes
It's clear I am an awful mess
(I had to get this off my chest)
Soon the only thing I'll have left
Is your memory and promises never kept

When she came home I made her sit
My feet tap out a rhythm as I draw breath in
To hurt the only one I've loved
"This is so damn hard but I am giving up."
"The person that you love is dead, 
I flooded him out with the Jack and Jameson, 
So happy anniversary.
The best gift I could think to give you was to set you free."

Wake up, you're sleeping
Wake up, you're sleeping behind the wheel
Wake up, you're sleeping
Wake up, you're sleeping behind the wheel
Behind the wheel
Tap to rate this tab
 
# A B C D E F G H I J K L M N O P Q R S T U V W X Y Z