Song name
# A B C D E F G H I J K L M N O P Q R S T U V W X Y Z

Senses Fail - Lungs Like Gallows tab

Help us improve GuitareTab! Take a short survey!
Drop c   im thirteen ,i learned this by ear, hope it helps. the tempo here is all wrong, 
dont blame me

---------------9-------------------------------------------------------|
-----------9------9--10------------------9h10p9------------------------|
-------9----------------------------9-------------12-------------------|
--12----------------------------12-------------------------------------|
-----------------------------------------------------------------------|
-----------------------------------------------------------------------|


----------------------------------------------------9---12----13--|
-------------8 10--8 10----13 11 10 10------------9---------------|
----------9------------------------------------9------------------|
------10-----------------------------------12---------------------|
------------------------------------------------------------------|
------------------------------------------------------------------|


-------------------------------------------------------------------|
-----------9-10--10-------13--------------8---10--8--10h13---------|
--------9------------12---------------9----------------------------|
----12----------------------------10-------------------------------|
-------------------------------------------------------------------|
-------------------------------------------------------------------|


--------------------------------------------------------------------|
----11--10----------------------------------------------------------|
---------------12--10--9--------------------------------------------|
--------------------------------------------------------------------|
--------------------------------------------------------------------|
--------------------------------------------------------------------|

second part of solo faster

GUITAR HARMONY ONE


--------------------------------------------------------------------------------|
----8-----10-----11----10h11--10h11--8------------------------------------------|
------0-0----0-0----0------------------10-9-------------------------------------|
--------------------------------------------------------------------------------|
--------------------------------------------------------------------------------|
--------------------------------------------------------------------------------|


-------8-------8------------10------10--12-13---------------------|
------------------------------------------------------------------|
--9-10----9-10----9-10-9-10----9-10-------------------------------|
------------------------------------------------------------------|
------------------------------------------------------------------|
------------------------------------------------------------------|

---------------------------------------------------------------------|
---8-----10-----11-------10-11-10-11-8-------------------------------|
-----0-0----0-0----0-0-----------------10-9--------------------------|
---------------------------------------------------------------------|
---------------------------------------------------------------------|
---------------------------------------------------------------------|

------------------------------8h11----------------------------------------|
------6--8---6-8---------8h11-----11-8----------6-8-6-8----10-11----------|
---8----------------8h10---------------10-8---8---------------------------|
--------------------------------------------------------------------------|
--------------------------------------------------------------------------|
--------------------------------------------------------------------------|
GUITAR HARMONY TWO


-------------------------------------------------------------------------|
-----11-----13-----15------13-15-13h15--11-------------------------------|
--------0-0----0-0----0-0------------------14-12-------------------------|
-------------------------------------------------------------------------|
-------------------------------------------------------------------------|
-------------------------------------------------------------------------|


---------12-------12--------------13-----13--15-17--------------|
----------------------------------------------------------------|
---12-14----12-14-----12-14-12-14---12-14-----------------------|
----------------------------------------------------------------|
----------------------------------------------------------------|
----------------------------------------------------------------|

-------------------------------------------------------------------------|
-----11-----13-----15------13-15-13h15--11-------------------------------|
--------0-0----0-0----0-0------------------14-12-------------------------|
-------------------------------------------------------------------------|
-------------------------------------------------------------------------|
-------------------------------------------------------------------------|

--------------------------------12h15p12------------------------------|
---------------------------12h15----------15-12-----------------------|
---12-14-15--14-15---14h15------------------------14-12---------------|
----------------------------------------------------------------------|
----------------------------------------------------------------------|
----------------------------------------------------------------------|

-----------------------------------------------------------------------------|
-----------------------------------------------------------------------------|
-----12-13-15--14-15---13-15-------------------------------------------------|
-----------------------------------------------------------------------------|
-----------------------------------------------------------------------------|
-----------------------------------------------------------------------------|


There it is, it is very accurate, and i hope u guys like it!


\
Related for Lungs Like Gallows tab