Song name
# A B C D E F G H I J K L M N O P Q R S T U V W X Y Z

Senses Fail - Four Years tab

--------------------------------------------------
			Four Years - Senses Fail
--------------------------------------------------
Tabbed by:hate248
Email:blueshika48@yahoo.com

Tuning:Drop D

e|-----------------------------15-15-15-15-15-15-15-15---|
B|-------------------------------------------------------|
G|-12-12-12-13-13-13-15-15-15----------------------------|
D|-------------------------------------------------------|
A|-------------------------------------------------------|
D|-------------------------------------------------------|

e|----------------------------15-15-15-15-15-15-15-15-15-13-11-10~~-11-10--15~~~10-11-10~11-10--15|
B|-----------------------------------------------------------------------11-------------------11--|
G|12-12-12-13-13-13-15-15-15----------------------------------------------------------------------|
D|------------------------------------------------------------------------------------------------|
A|------------------------------------------------------------------------------------------------|
D|------------------------------------------------------------------------------------------------|

e|-16-15-16-15---|
B|------------16-|
G|---------------|
D|---------------|
A|---------------|
E|---------------|

Repeat everything so far....

Higher part

e|-15-15-15-16-16-16-18-18-18-------------------|
B|----------------------------16-16--16--16-----|
G|---------------------------------15--15--15---|
D|----------------------------------------------|
A|----------------------------------------------|
D|----------------------------------------------|

e|-15-15-15-16-16-16-18-18-18----------------------------------------------|
B|----------------------------16-16--16--16---15-16-15~~-16-15~~--16////20-|
G|---------------------------------15--15--15-------------------15---------|
D|-------------------------------------------------------------------------|
A|-------------------------------------------------------------------------|
D|-------------------------------------------------------------------------|

e|----------------------------------------|
B|--15-16-15--16////20~~~--21-20-21--18---|
G|----------15---------------------20--20-|
D|----------------------------------------|
A|----------------------------------------|
D|----------------------------------------|

Then repeat this whole second part

And thats about it

| /  slide up
| \  slide down
| h  hammer-on
| p  pull-off
| ~  vibrato
| +  harmonic
| x  Mute note
===============================================================================
Tap to rate this tab
# A B C D E F G H I J K L M N O P Q R S T U V W X Y Z