Song name
# A B C D E F G H I J K L M N O P Q R S T U V W X Y Z

Senses Fail - Rapture tab

Originally Tabbed by: shadowedheart91(Dylan Nolff)
Re-tabbed by: SIRRON_KCUHC(JiN)

Thanks to shadowedheart91 for letting me use his tab to help me make this.
I take no credit for the actual tab itself.
I only added in the timings and the time(eighth note, sixteenth note, etc.) and 
corrected a few things.
This tab is as accurate as possible and couldn't have happened without shadowedheart91's help.
Rate and leave comments if possible.

Tuning:Drop D
============================================================================
Some kind of feedback or something for the beggining.(0:00)

Verse 1 (0:21)
                                      3
                                   |-----|
     E. S S E. S S E. S S E. S S E. T T T E. S S
e|-----------------------------------------------|
B|-----------------------------------------------|
G|---7--7-7-7--7-7-7--7-7-6--6-6-6--6-6-6-6--6-6-|
D|---X--X-X-X--X-X-X--X-X-X--X-X-X--X-X-X-X--X-X-|
A|---5--5-5-5--5-5-5--5-5-4--4-4-4--4-4-4-4--4-4-|
D|-----------------------------------------------|

                                            3
                                        |-------|
     E. S S E. S S E. S S  E.  S  S  E.  T  T  T  E.  S  S
e|---------------------------------------------------------|
B|---------------------------------------------------------|
G|---9--9-9-9--9-9-9--9-9-11--11-11-11--11-11-11-11--11-11-|
D|---X--X-X-X--X-X-X--X-X--X---X--X--X---X--X--X--X---X--X-|
A|---7--7-7-7--7-7-7--9-9--9---9--9--9---9--9--9--9---9--9-|
D|---------------------------------------------------------|

                                      3
                                   |-----|
     E. S S E. S S E. S S E. S S E. T T T E. S S
e|-----------------------------------------------|
B|-----------------------------------------------|
G|---7--7-7-7--7-7-7--7-7-6--6-6-6--6-6-6-6--6-6-|
D|---X--X-X-X--X-X-X--X-X-X--X-X-X--X-X-X-X--X-X-|
A|---5--5-5-5--5-5-5--5-5-4--4-4-4--4-4-4-4--4-4-|
D|-----------------------------------------------|

                                            3
                                        |-------|
     E. S S E. S S E. S S  E.  S  S  E.  T  T  T  E.  S  S
e|---------------------------------------------------------|
B|---------------------------------------------------------|
G|---9--9-9-9--9-9-9--9-9-11--11-11-11--11-11-11-11--11-11-|
D|---X--X-X-X--X-X-X--X-X--X---X--X--X---X--X--X--X---X--X-|
A|---7--7-7-7--7-7-7--9-9--9---9--9--9---9--9--9--9---9--9-|
D|---------------------------------------------------------|

Bridge 1(0:37)
    E. S S E. S S E. S S E. S S E. S S E. S S
e|--------------------------------------------|
B|--------------------------------------------|
G|--7--7-7-7--7-7-7--7-7-9--9-9-9--9-9-9--9-9-|
D|--X--X-X-X--X-X-X--X-X-X--X-X-X--X-X-X--X-X-|
A|--5--5-5-5--5-5-5--5-5-7--7-7-7--7-7-7--7-7-|
D|--------------------------------------------|

     E.  S  S  E.  S S S  S  S  S  S  S. S  S  S  S  S. S  S  S
e|--------------------------------------------------------------|
B|--------------------------------------------------------------|
G|--11--11-11-11--11\9-9/14-14-14-14-14-12-12-12-12-12-11-11-11-|
D|---X---X--X--X---X\X-X/-X--X--X--X--X--X--X--X--X--X--X--X--X-|
A|---9---9--9--9---9\7-7/12-12-12-12-12-10-10-10-10-10--9--9--9-|
D|--------------------------------------------------------------|

    E. S S E. S S E. S S E. S S E. S S E. S S
e|--------------------------------------------|
B|--------------------------------------------|
G|--7--7-7-7--7-7-7--7-7-9--9-9-9--9-9-9--9-9-|
D|--X--X-X-X--X-X-X--X-X-X--X-X-X--X-X-X--X-X-|
A|--5--5-5-5--5-5-5--5-5-7--7-7-7--7-7-7--7-7-|
D|--------------------------------------------|

     E.  S  S  E.  S  S  E E E E E E E E E
e|-----------------------------------------|
B|-----------------------------------------|
G|--11--11-11-11--11-11-11\7-7-7-7-7-7-7-7-|
D|---X---X--X--X---X--X--X\X-X-X-X-X-X-X-X-|
A|---9---9--9--9---9--9--9\5-5-5-5-5-5-5-5-|
D|-----------------------------------------|

Chorus 1(0:52)
      3      3      3      3      3      3      3      3
   |------|------|------|------|------|------|------|------|
    S E. S S E. S S E. S S E. S S E. S S E. S S E. S S E. S 
e|----------------------------------------------------------|
B|----------------------------------------------------------|
G|----------------------------------------------------------|
D|--5-5--5-4-4--4-0-0--0-0-0--0-5-5--5-4-4--4-0-0--0-0-0--0-|
A|--5-5--5-4-4--4-0-0--0-0-0--0-5-5--5-4-4--4-0-0--0-0-0--0-|
D|--5-5--5-4-4--4-0-0--0-0-0--0-5-5--5-4-4--4-0-0--0-0-0--0-|

      3      3      3      3      3      3
   |------|------|------|------|------|------| 
    S E. S S E. S S E. S S E. S S E. S S E. S
e|--------------------------------------------|
G|--------------------------------------------|
B|--------------------------------------------|
D|--5-5--5-4-4--4-0-0--0-2-2--2-5-5--5-4-4--4-|
A|--5-5--5-4-4--4-0-0--0-2-2--2-5-5--5-4-4--4-|
D|--5-5--5-4-4--4-0-0--0-2-2--2-5-5--5-4-4--4-|

Verse 2(1:06)
                                      3
                                   |-----|
     E. S S E. S S E. S S E. S S E. T T T E. S S
e|-----------------------------------------------|
B|-----------------------------------------------|
G|---7--7-7-7--7-7-7--7-7-6--6-6-6--6-6-6-6--6-6-|
D|---X--X-X-X--X-X-X--X-X-X--X-X-X--X-X-X-X--X-X-|
A|---5--5-5-5--5-5-5--5-5-4--4-4-4--4-4-4-4--4-4-|
D|---0--0-0-0------------------------------------|

                                            3
                                        |-------|
     E. S S E. S S E. S S  E.  S  S  E.  T  T  T  E.  S  S
e|---------------------------------------------------------|
B|---------------------------------------------------------|
G|---9--9-9-9--9-9-9--9-9-11--11-11-11--11-11-11-11--11-11-|
D|---X--X-X-X--X-X-X--X-X--X---X--X--X---X--X--X--X---X--X-|
A|---7--7-7-7--7-7-7--9-9--9---9--9--9---9--9--9--9---9--9-|
D|---------------------------------------------------------|

                                      3
                                   |-----|
     E. S S E. S S E. S S E. S S E. T T T E. S S
e|-----------------------------------------------|
B|-----------------------------------------------|
G|---7--7-7-7--7-7-7--7-7-6--6-6-6--6-6-6-6--6-6-|
D|---X--X-X-X--X-X-X--X-X-X--X-X-X--X-X-X-X--X-X-|
A|---5--5-5-5--5-5-5--5-5-4--4-4-4--4-4-4-4--4-4-|
D|-----------------------------------------------|

                                            3
                                        |-------|
     E. S S E. S S E. S S  E.  S  S  E.  T  T  T  E.  S  S
e|---------------------------------------------------------|
B|---------------------------------------------------------|
G|---9--9-9-9--9-9-9--9-9-11--11-11-11--11-11-11-11--11-11-|
D|---X--X-X-X--X-X-X--X-X--X---X--X--X---X--X--X--X---X--X-|
A|---7--7-7-7--7-7-7--9-9--9---9--9--9---9--9--9--9---9--9-|
D|---------------------------------------------------------|

Bridge 2(1:22)
    E. S S E. S S E. S S E. S S E. S S E. S S
e|--------------------------------------------|
B|--------------------------------------------|
G|--7--7-7-7--7-7-7--7-7-9--9-9-9--9-9-9--9-9-|
D|--X--X-X-X--X-X-X--X-X-X--X-X-X--X-X-X--X-X-|
A|--5--5-5-5--5-5-5--5-5-7--7-7-7--7-7-7--7-7-|
D|--------------------------------------------|

     E.  S  S  E.  S S S  S  S  S  S  S. S  S  S  S  S. S  S  S
e|--------------------------------------------------------------|
B|--------------------------------------------------------------|
G|--11--11-11-11--11\9-9/14-14-14-14-14-12-12-12-12-12-11-11-11-|
D|---X---X--X--X---X\X-X/-X--X--X--X--X--X--X--X--X--X--X--X--X-|
A|---9---9--9--9---9\7-7/12-12-12-12-12-10-10-10-10-10--9--9--9-|
D|--------------------------------------------------------------|

    E. S S E. S S E. S S E. S S E. S S E. S S
e|--------------------------------------------|
B|--------------------------------------------|
G|--7--7-7-7--7-7-7--7-7-9--9-9-9--9-9-9--9-9-|
D|--X--X-X-X--X-X-X--X-X-X--X-X-X--X-X-X--X-X-|
A|--5--5-5-5--5-5-5--5-5-7--7-7-7--7-7-7--7-7-|
D|--------------------------------------------|

     E.  S  S  E.  S  S  E E E E E E E E E
e|-----------------------------------------|
B|-----------------------------------------|
G|--11--11-11-11--11-11-11\7-7-7-7-7-7-7-7-|
D|---X---X--X--X---X--X--X\X-X-X-X-X-X-X-X-|
A|---9---9--9--9---9--9--9\5-5-5-5-5-5-5-5-|
D|-----------------------------------------|

Chorus 2(1:37)
      3      3      3      3      3      3      3      3
   |------|------|------|------|------|------|------|------|
    S E. S S E. S S E. S S E. S S E. S S E. S S E. S S E. S 
e|----------------------------------------------------------|
B|----------------------------------------------------------|
G|----------------------------------------------------------|
D|--5-5--5-4-4--4-0-0--0-0-0--0-5-5--5-4-4--4-0-0--0-0-0--0-|
A|--5-5--5-4-4--4-0-0--0-0-0--0-5-5--5-4-4--4-0-0--0-0-0--0-|
D|--5-5--5-4-4--4-0-0--0-0-0--0-5-5--5-4-4--4-0-0--0-0-0--0-|

      3      3      3      3      3      3
   |------|------|------|------|------|-----| 
    S E. S S E. S S E. S S E. S S E.E. S S S
e|-------------------------------------------|
G|-------------------------------------------|
B|-------------------------------------------|
D|--5-5--5-4-4--4-0-0--0-2-2--2-5-5-5--4-4-4-|
A|--5-5--5-4-4--4-0-0--0-2-2--2-5-5-5--4-4-4-|
D|--5-5--5-4-4--4-0-0--0-2-2--2-5-5-5--4-4-4-|
                                    PM . . .
    
    W                             
e|-------|
B|-------|
G|-------|
D|--0~~~-|
A|--0~~~-|
D|--0~~~-|


Key:
W=Whole Note
E=Eighth Note
E.=Doted Eighth Note
S=Sixteenth Note
T=Thirty-Second Note
X=Left Hand Finger Damp
\=Slide Down
/=Slide Up
PM.=Palm Mute
~=Vibrato(Slightly in this song)
    3
|-------|=Triplet Formation
============================================================================
Tap to rate this tab
 
# A B C D E F G H I J K L M N O P Q R S T U V W X Y Z