Song name
# A B C D E F G H I J K L M N O P Q R S T U V W X Y Z

Senses Fail - Garden State tab

== INTRO - OUTRO ==

Lead Guitar
                 
E||-------|--------------------------------------|
B||-------|--10-10---10-10-10---10---8---7---8---|
G||-------|---x--x----x--x--x----x---x---x---x---|
D||-------|---7--7----7--7--7----7---5---4---5---|
A||-------|--------------------------------------|
D||-------|--------------------------------------|



-----------------------------------------------------|
--10-10---10-10-10---10---12---10--10-10-10-10-10-10-|
---x--x----x--x--x----x----x----x---x--x--x--x--x--x-|
---7--7----7--7--7----7----9----7---7--7--7--7--7--7-|
-----------------------------------------------------|
-----------------------------------------------------|



--------------------------------------|-----------------------------|
--10-10---10-10-10---10---8---7---8---|-----------------------------|
---x--x----x--x--x----x---x---x---x---|--12-11-11-7-9-11-7----------|
---7--7----7--7--7----7---5---4---5---|---x--x--x-x-x--x-5----------|
--------------------------------------|--10--9--9-5-7--9-5----------|
--------------------------------------|-----------------------------|

Rythym Guitar
      
E||-----------|----------------------------------|
B||-----------|----------------------------------|
G||-----------|--4-4-4-6-6-6-7-7-7---------------|
D||-----------|--x-x-x-x-x-x-x-x-x-5-5-5-5-4-4-4-|
A||-----------|--2-2-2-4-4-4-5-5-5-5-5-5-5-4-4-4-|
D||-----------|--------------------5-5-5-5-4-4-4-|


  
----------------------------------|----------------------------------|
----------------------------------|----------------------------------|
--4-4-4-6-6-6-7-7-7---------------|--4-4-4-6-6-6-7-7-7---------------|
--x-x-x-x-x-x-x-x-x-5-5-5-5-4-4-4-|--x-x-x-x-x-x-x-x-x-5-5-5-5-4-4-4-|
--2-2-2-4-4-4-5-5-5-5-5-5-5-4-4-4-|--2-2-2-4-4-4-5-5-5-5-5-5-5-4-4-4-|
--------------------5-5-5-5-4-4-4-|--------------------5-5-5-5-4-4-4-|


                  
-------------------------|
-------------------------|
-------------------------|
--5-4-4-0-2-4-0----------|
--5-4-4-0-2-4-5----------|
--5-4-4-0-2-4-5----------|

== VERSE ==

Lead Guitar:


                          PM PM PM PM PM PM PM  
    
-----------------------------------------------|
--10-10---10-10---10-10------------------------|
---x--x----x--x----x--x------------------------|
---7--7----7--7----7--7------------------------|
--------------------------0--0--0--0--0--0--0--|
--------------------------0--0--0--0--0--0--0--|


  PM PM PM PM PM PM PM PM PM PM PM PM PM PM PM PM  
  
--------------------------------------------------|
--------------------------------------------------|
--------------------------------------------------|
--------------------------------------------------|
--7--7--7--7--7--7--7--7--2--2--2--2--2--2--2--2--|
--7--7--7--7--7--7--7--7--2--2--2--2--2--2--2--2--|

(PLAY TWO TIMES)


     PM      PM    PM                   
   
---------------------------------------|
----------------------7----------------|
--7-----9-7-----7---------------7---7--|
----(7)-----(7)---(7)-----7---7--------|
---------------------------------------|
---------------------------------------|


     PM      PM    PM                    
 
----------------------------------------|
----------------------7---------8-7-----|
--7-----9-7-----7-------------------9-7-|
----(7)-----(7)---(7)-----7---7---------|
----------------------------------------|
----------------------------------------|

(PLAY TWO TIMES)

== SOLO ==

Lead Guitar:

 
--17-17-17-15-15-15-14~--14----------------14----|
----------------------------15----------15----15-|
-------------------------------14----14----------|
----------------------------------16-------------|
-------------------------------------------------|
-------------------------------------------------|


   
-----------14-----14~-----15~-----14--------|
--14-15-17-----17------17------17----17-15--|
--------------------------------------------|
--------------------------------------------|
--------------------------------------------|
--------------------------------------------|



--17-17-17-15-15-15-14~--14----------------14----|
----------------------------15----------15----15-|
-------------------------------14----14----------|
----------------------------------16-------------|
-------------------------------------------------|
-------------------------------------------------|


  
--------------------14-------14-15-14h-15p-14---------|
--14-15-17-14-15-17----15-17------------------17-15\--|
------------------------------------------------------|
------------------------------------------------------|
------------------------------------------------------|
------------------------------------------------------|

Rhythm Guitar:

 
----------------------------------|
----------------------------------|
----------------------------------|
--9-9-9-9-9-9-7-7-7-7-7-7-7-7-7-7-|
--9-9-9-9-9-9-7-7-7-7-7-7-7-7-7-7-|
--9-9-9-9-9-9-7-7-7-7-7-7-7-7-7-7-|



-------------------------------|----------------------------------|
-------------------------------|----------------------------------|
-------------------------------|----------------------------------|
------0-0-0-4-5----5-5-7-5-4-0-|--9-9-9-9-9-9-7-7-7-7-7-7-7-7-7-7-|
------0-0-0-4-5----5-5-7-5-4-0-|--9-9-9-9-9-9-7-7-7-7-7-7-7-7-7-7-|
--0-0-0-0-0-4-5----5-5-7-5-4-0-|--9-9-9-9-9-9-7-7-7-7-7-7-7-7-7-7-|


               
----------------------------------|
----------------------------------|
----------------------------------|
--5-5-5-5-5-5-5-5-5-5-5-5-5-5-5---|
--5-5-5-5-5-5-5-5-5-5-5-5-5-5-5---|
--5-5-5-5-5-5-5-5-5-5-5-5-5-5-5---|

== CHORUS ==

Lead Guitar:

----------------------------------|
----------------------------------|
--7-7-7-7-7-7-7-7-7-7-7-7-7-7-7-7-|
--9-9-9-9-9-9-9-9-9-9-9-9-9-9-9-9-|
----------------------------------|
----------------------------------|



--------------------------------------------------|
--------------------------------------------------|
--11-11-11-11-11-11-11-11-11-11-11-11-11-11-11-11-|
---9--9--9--9--9--9--9--9--9--9--9--9-12-12-12-12-|
--------------------------------------------------|
--------------------------------------------------|


  
--------------------------------------------------|--------------------------|
--------------------------------------------------|--3---5---7---7---7-7-7-7-|
---9--9--9--9--9--9--9--9--9--9--9--9--9--9--9--9-|--0---0---0---0---0-0-0-0-|
--12-12-12-12-12-12-12-12-12-12-12-12-12-12-12-12-|--------------------------|
--------------------------------------------------|--------------------------|
--------------------------------------------------|--------------------------|

(PLAY TWO TIMES)

Rhythm Guitar:

 
----------------------------------|----------------------------------|
----------------------------------|----------------------------------|
--4-4-4-4-4-4-4-4-4-4-4-4-4-4-4-4-|--7-7-7-7-7-7-7-7-7-7-7-7-7-7-7-7-|
--4-4-4-4-4-4-4-4-4-4-4-4-4-4-4-4-|--7-7-7-7-7-7-7-7-7-7-7-7-7-7-7-7-|
--2-2-2-2-2-2-2-2-2-2-2-2-2-2-2-2-|--5-5-5-5-5-5-5-5-5-5-5-5-5-5-5-5-|
----------------------------------|----------------------------------|


   
----------------------------------|----------------------------------|
----------------------------------|----------------------------------|
--2-2-2-2-2-2-2-2-2-2-2-2-2-2-2-2-|----------------------------------|
--2-2-2-2-2-2-2-2-2-2-2-2-2-2-2-2-|--5-5-5-5-5-5-5-5-5-5-5-5-5-5-5-5-|
--0-0-0-0-0-0-0-0-0-0-0-0-0-0-0-0-|--5-5-5-5-5-5-5-5-5-5-5-5-5-5-5-5-|
----------------------------------|--5-5-5-5-5-5-5-5-5-5-5-5-5-5-5-5-|
 
== BREAK ==

Lead Guitar:

 
--------------------------------|
--5-5-5-5-5-5-7-7--5-5--5-5-5-5-|
--2-2-2-2-2-2-x-x--2-2--2-2-2-2-|
--------------7-7---------------|
--------------------------------|
--------------------------------|

== SOLO ==

== VERSE ==

== CHORUS==

== INTRO RIFF ==

== BREAK ==

== CHORUS ==

== SOLO ==

== OUTRO (INTRO RIFF) ==
Tap to rate this tab
# A B C D E F G H I J K L M N O P Q R S T U V W X Y Z