Song name
# A B C D E F G H I J K L M N O P Q R S T U V W X Y Z

Senses Fail - Angela Baker And My Obsession With Fire tab

Artist: - Senses Fail
Song Title: - Angela Baker and My Obsession with Fire
Tabbed By: - Ghostman 1981
Tuning: - Drop D (DADGBE)

It may not be 100% but its close
==========================================================
Guitar 1 Rhythm
Intro
E|-0~------------------------|
B|-4~------------------------|
G|-1~------------------------|
D|-2~------------------------|
A|---------------------------|
D|---------------------------|

Chorus
E|-----------------------------------------------------|
B|-----------------------------------------------------|
G|-----------------------------------------------------|
D|-44-444-444-6-77-777-777xxx22-222-222-22-222-222-xx--|
A|-44-444-444-6-77-777-777xxx22-222-222-22-222-222-xx--|
D|-44-444-444-6-77-777-777xxx22-222-222-11-111-111-xx--|

E|-----------------------------------------------------|
B|-----------------------------------------------------|
G|-----------------------------------------------------|
D|-44-444-444-6-77-777-777--7-2~--2~--2~--///////------|
A|-44-444-444-6-77-777-777--7-2~--2~--2~--pick scrape--|
D|-44-444-444-6-77-777-777--7/2~--1~--2~--///////------|

Verse
E|-----------------------------------------------------|
B|-----------------------------------------------------|
G|-----------------------------------------------------|
D|-444-------444--------222--------222-----------------|
A|-444-------444--------222--------222-----------------|
D|-444-------444--------222--------222-----------------|


E|-----------------------------------------------------|
B|-----------------------------------------------------|
G|-----------------------------------------------------|
D|-444-------444--------222--------222-----------------|
A|-444-------444--------222--------222-----------------|
D|-444-------444--------222--------222-------7/--------|

Pre-Chorus
E|--------------------------------------------------------------|
B|--------------------------------------------------------------|
G|--------------------------------------------------------------|
D|-44-4-44-4-444--22-2-22-2-222--77-7-77-7-777--22-2-22-2-222---|
A|-44-4-44-4-444--22-2-22-2-222--77-7-77-7-777--22-2-22-2-222---|
D|-44-4-44-4-444--22-2-22-2-222--77-7-77-7-777--22-2-22-2-222---|
PM .. . .. . ...  .. . .. . ...  .. . .. . ...  .. . .. . ...                              

E|--------------------------------------------------------------|
B|--------------------------------------------------------------|
G|--------------------------------------------------------------|
D|-44-4-44-4-444--22-2-22-2-222--77-7-77-7-777--22-2-22-222222--|
A|-44-4-44-4-444--22-2-22-2-222--77-7-77-7-777--22-2-22-222222--|
D|-44-4-44-4-444--22-2-22-2-222--77-7-77-7-777--22-2-22-222222--|
PM .. . .. . ...  .. . .. . ...  .. . .. . ...  .. . ..       

Chorus
E|-----------------------------------------------------|
B|-----------------------------------------------------|
G|-----------------------------------------------------|
D|-44-444-444-6-77-777-777xxx22-222-222-22-222-222-xx--|
A|-44-444-444-6-77-777-777xxx22-222-222-22-222-222-xx--|
D|-44-444-444-6-77-777-777xxx22-222-222-11-111-111-xx--|






E|-----------------------------------------------------|
B|-----------------------------------------------------|
G|-----------------------------------------------------|
D|-44-444-444-6-77-777-777--7-2~--2~----///////--------|
A|-44-444-444-6-77-777-777--7-2~--2~----pick scrape----|
D|-44-444-444-6-77-777-777--7/2~--1~----///////--------|

Repeat
Chorus
Verse
Pre-chorus
Chorus

Bridge
e|----------------------------------------------------------------------------|
 |----------------------------------------------------------------------------|
 |-------------------------666-6-666-6-6666-----------------------------------|
 |-7~--7-2~----7~--7-2~----666-6-666-6-6666-777-7-777-7-7777-222-2-222-2-2222-|
 |-7~--7-2~----7~--7-2~----444-4-444-4-4444-777-7-777-7-7777-222-2-222-2-2222-|
E|-7~--7/2~----7~--7/2~---------------------777-7-777-7-7777-222-2-222-2-2222-|
PM                         ... . ... . .... ... . ... . .... ... . ... . ....
                    
e|---------------------------------------------------------------------------------|
 |---------------------------------------------------------------------------------|
 |--------------------666-6-666-6-6666---------------------------------------------|
 |-222-2-222-2-2222---666-6-666-6-6666-777-7-777-7-7777-222-2-222-2-2222-222-2-222-|
 |-222-2-222-2-2222---444-4-444-4-4444-777-7-777-7-7777-222-2-222-2-2222-222-2-222-|
E|-222-2-222-2-2222--------------------777-7-777-7-7777-222-2-222-2-2222-222-2-222-|
PM ... . ... . ....   ... . ... . .... ... . ... . .... ... . ... . .... ... . ...

Bridge Part 2
e|-----------------------------------------------------------------------------------|
 |-----------------------------------------------------------------------------------|
 |----------6-6666-6-6666-6-66-------------------------------------------------------|
 |-2-2222---6-6666-6-6666-6-66-7-7777-7-7777-7-77-2-2222-2-2222-2-22-2-2222-2-2222-2-|
 |-2-2222---4-4444-4-4444-4-44-7-7777-7-7777-7-77-2-2222-2-2222-2-22-2-2222-2-2222-2-|
E|-2-2222----------------------7-7777-7-7777-7-77-2-2222-2-2222-2-22-2-2222-2-2222-2-|
PM . ....     ....   ....   ..   ....   ....   ..   ....   ....   ..   ....   ....

e|--------------------------------------------------------------------------|
 |--------------------------------------------------------------------------|
 |-6-6666-6-6666-6-66-------------------------------------------------------|
 |-6-6666-6-6666-6-66-7-7777-7-7777-7-77-2-22222222-2-----------------------|
 |-4-4444-4-4444-4-44-7-7777-7-7777-7-77-2-22222222-2-----------------------|
E|--------------------7-7777-7-7777-7-77-2-22222222-2-----------------------|
PM   ....   ....   ..   ....   ....   ..   ........

 Ending
e|------------------------------------|
 |------------------------------------|   X4
 |-6666-6-----------------------------|
 |-6666-6---77-7-7---2222-2--22-2-2---|
 |-4444-4/--77-7-7---2222-2--22-2-2---|
E|----------77-7-7/--2222-2~-22-2-2/--|

 
e|-----------------------------------|
 |-----------------------------------|
 |-66666666--------------------------|
 |-66666666-77-7777-22222222-22-2222-|   X4
 |-44444444-77-7777-22222222-22-2222-|
E|----------77-7777-22222222-22-2222-|

e|-------------------|
 |-------------------|
 |-------------------|
 |-6~-----7~-----2~--|
 |-6~-----7~-----2~--|
E|-4~-----7~-----2~--|




Guitar  2    Lead

Intro
E|-0~-----0-0-0-0-0-0-0----|
B|-4~-----5-4-2-5-4-2-5----|
G|-------------------------|
D|-------------------------|
A|-------------------------|
D|-------------------------|



Chorus
E|-00-0-0-00-0-0-0-0-00-0-0-00-0-0-0-0-00-0-0-00-0-0-0-0-00-0-0-00-0-0-0-0---|
B|-55-4-0-55-4-0-5-4-55-4-0-55-4-0-5-4-77-4-0-77-4-0-7-4-55-4-0-55-4-0-5-4---|
G|---------------------------------------------------------------------------|
D|---------------------------------------------------------------------------|
A|---------------------------------------------------------------------------|
D|---------------------------------------------------------------------------|

E|-00-0-0-00-0-0-0-0-00-0-0-00-0-0-0-0-----0----0---------0----0-------------|
B|-55-4-0-55-4-0-5-4-55-4-0-55-4-0-5-4---------------------------------------|
G|---------------------------------------1h2--1h2--1h2--1h2--1h2--1h2--------|
D|---------------------------------------------------------------------2~----|
A|---------------------------------------------------------------------2~----|
D|---------------------------------------------------------------------2~----|

Verse
E|-----0000-0000-0000-----0000-0000-0000-----0000-0000-0000-----0000-0000-0000-|
B|-----5555-4444-2222-----5555-4444-2222-----5555-4444-2222-----5555-4444-7777-|
G|-----------------------------------------------------------------------------|
D|-444----------------444----------------222----------------222----------------|
A|-444----------------444----------------222----------------222----------------|
D|-444----------------444----------------222----------------222----------------|

Pre-Chorus
e|-0-00-0-00-0-0-00-0-00-0-0-0-0--00-0-000000000-|
B|-4h55-4h55-7-4h55-4h55-7-101010-99-7-555555555-|
G|-----------------------------------------------|
D|-----------------------------------------------|
A|-----------------------------------------------|
D|-----------------------------------------------|

E|-0-00-0-00-0-0-00-0-00-0-0-0-0--00-0-000000000-|
B|-4h55-4h55-7-4h55-4h55-7-101010-99-7-555555555-|
G|-----------------------------------------------|
D|-----------------------------------------------|
A|-----------------------------------------------|
D|-----------------------------------------------|

Chorus
E|-00-0-0-00-0-0-0-0-00-0-0-00-0-0-0-0-00-0-0-00-0-0-0-0-00-0-0-00-0-0-0-0---|
B|-55-4-0-55-4-0-5-4-55-4-0-55-4-0-5-4-77-4-0-77-4-0-7-4-55-4-0-55-4-0-5-4---|
G|---------------------------------------------------------------------------|
D|---------------------------------------------------------------------------|
A|---------------------------------------------------------------------------|
D|---------------------------------------------------------------------------|

E|-00-0-0-00-0-0-0-0-00-0-0-00-0-0-0-0-----0----0---------0----0--------|
B|-55-4-0-55-4-0-5-4-55-4-0-55-4-0-5-4----------------------------------|
G|---------------------------------------1h2--1h2--1h2--1h2--1h2--1h2--|
D|----------------------------------------------------------------------|
A|----------------------------------------------------------------------|
D|----------------------------------------------------------------------|


Repeat
Chorus
Verse
Pre-chorus
Chorus





Bridge
E|-----0-0---------0-0-0-----0-0-0---|
B|-0~--4-2-0~--0~--5-4-2-0~--5-4-2---|
G|-2~------1~--2~--------1~----------|
D|-----------------------------------|
A|-----------------------------------|
D|-----------------------------------|

Bridge Part 2
E|------------------------------------------------------------------------------|
B|------------------------------------------------------------------------------|
G|----------6----6----6---------------------------------------------------------|
D|----------6----6----6----7----7----7----2----2----2----2----2----2------------|
A|----------4----4----4----7----7----7----2----2----2----2----2----2------------|
D|-------------------------7----7----7----2----2----2----2----2----2------------|

E|----------------------------------------------|
B|----------------------------------------------|
G|-6----6----6----------------------------------|
D|-6----6----6----7----7----7----2-22222222-2---|
A|-4----4----4----7----7----7----2-22222222-2---|
D|----------------7----7----7----2-22222222-2---|
PM                                 ........

Ending
E|------------------------------------------------------------------------------|
B|------------------------------------------------------------------------------|
G|-13-13-13-1111-9-9----13-13-13-1111-9-9----13-13-13-1111-9-9-8-8-9-9-8-8-9-9--|
D|--x-x-x-x-x-x--x-x----x--x--x--x-x--x-x----x--x--x--x-x--x-x-x-x-x-x-x-x-x-x--|
A|-11-11-11-9-9--7-7----11-11-11-9-9--7-7----11-11-11-9-9--7-7-6-6-7-7-6-6-7-7--|
D|------------------------------------------------------------------------------|

E|------------------------------------------------------------------------------|
B|------------------------------------------------------------------------------|
G|-13-13-13-1111-9-9----13-13-13-1111-9-9----13-13-13-1111-9-9-8-8-9-9-8-8-9-9--|
D|--x-x-x-x-x-x--x-x----x--x--x--x-x--x-x----x--x--x--x-x--x-x-x-x-x-x-x-x-x-x--|
A|-11-11-11-9-9--7-7----11-11-11-9-9--7-7----11-11-11-9-9--7-7-6-6-7-7-6-6-7-7--|
D|------------------------------------------------------------------------------|

E|------------------------------------------------------------------------------|
B|------------------------------------------------------------------------------|
G|-13-13-13-13-13-13-13-13--1111111111111111-9-9-9-9-9-9-9-9-8-8-8-8-9-9-9-9----|
D|--x--x--x--x--x--x-x--x--x-x-x-x-x-x-x-x--x-x-x-x-x-x-x-x-x-x-x-x-x-x-x-x----|
A|-11-11-11-11-11-11-11-11--9-9-9-9-9-9-9-9--7-7-7-7-7-7-7-7-6-6-6-6-7-7-7-7----|
D|------------------------------------------------------------------------------|

E|------------------------------------------------------------------------------|
B|------------------------------------------------------------------------------|
G|-13-13-13-13-13-13-13-13--1111111111111111-9-9-9-9-9-9-9-9-8-8-9-9-8-8-9-9----|
D|--x--x--x--x--x--x-x--x--x-x-x-x-x-x-x-x--x-x-x-x-x-x-x-x-x-x-x-x-x-x-x-x----|
A|-11-11-11-11-11-11-11-11--9-9-9-9-9-9-9-9--7-7-7-7-7-7-7-7-6-6-7-7-6-6-7-7----|
D|------------------------------------------------------------------------------|

E|------------------------------------------------------------------------------|
B|-7-4-0-7-4-0-7-4-5-4-0-5-4-0-5-4-4-2-0-4-2-0-4-2------------------------------|
G|------------------------------------------------------------------------------| X4
D|------------------------------------------------------------------------------|
A|------------------------------------------------------------------------------|
D|------------------------------------------------------------------------------|
		      End on
E|--------------------------|
B|--------------------------|
G|--------------------------|
D|-6~-----7~-----2~-----2---|
A|-6~-----7~-----2~-----2---|
D|-4~-----7~-----2~-----2---|
Tap to rate this tab
# A B C D E F G H I J K L M N O P Q R S T U V W X Y Z