Song name
# A B C D E F G H I J K L M N O P Q R S T U V W X Y Z

Senses Fail - Bite To Break Skin tab

Tuning: D standard
yeah i figured this out by ear in about 4 hours one lonely and boring day haha
if you dont wanna tune to d standard just move everything up 2 frets in drop d

Lead:
D|-----------10---|
A|-7h8p7h8p7------|(repeat that the whole intro)
F|----------------|
C|----------------|
G|----------------|
D|----------------|
rythme(idk how to spell that haha)
D|----------------------|
A|----------------------|
F|----------------------|
C|----------------------|
G|2~~-10~~-9~~----------|
D|0~~-8~~--7~~----------|repeat (thats pretty much the whole rythme part its really just 
same chord progression the whole song)

Lead:
D|-------------------------------------------1010--------1010--------1010-|
A|55778101010551010--5577885577885588-557788------557788------557788------|
F|------------------------------------------------------------------------|
C|------------------------------------------------------------------------|
G|------------------------------------------------------------------------|
D|------------------------------------------------------------------------|
yes all those 1's and 0's are really 10's not 1's and 0's just clarifying that
okay the guitar parts are just the beginning rythme parts except palm muting
D|-----------------------------------|
A|-----------------------------------|
F|-----------------------------------|
C|-----------------------------------|
G|222---101010--222------------------|
D|000---8-8-8---000------------------|
  ***   * * *   ***                   those are pretty much all the palm mute part chords xD

lead(breakdown): so okay i didnt finish figuring out the rythme part for this but i did 
the lead down

D|---------------------------------------------------------------------
A|1212121212121212-1212121212121212s88888888-88888888s33333333s88888888
F|---------------------------------------------------------------------|
C|---------------------------------------------------------------------|
G|---------------------------------------------------------------------|
D|---------------------------------------------------------------------|

D|---------------------------------------------------------------------|
A|-88888888p7h8--------------------------------------------------------|
F|---------------------------------------------------------------------|
C|---------------------------------------------------------------------|
G|---------------------------------------------------------------------|
D|---------------------------------------------------------------------|
repeat this whole sequence again i think one more time

rythme is just tripleting the chords from the beginning(just listen to the song)
Lead: this is my favorite part haha
D|------10-------12s10-|
A|7-8-7----7-8-7-------|
F|---------------------|
C|---------------------|
G|---------------------|
D|---------------------|

oh and this is for flare during that part ^ up there

D|------10-------|
A|7-8-7----8~-7~-|
F|---------------|
C|---------------|
G|---------------|
D|---------------|
haha that just sounds good while playing it and then just keep playing it the way up 
haha u no 7 8 7 10 7 8 7 12 slide 10

Legend:
*=palm mute
s=slide
~=let ring(up to you alot or a little)

i know its not the best tab out there but i got impatient haha but im sure you get the 
and basis..i hope :D
Tap to rate this tab
# A B C D E F G H I J K L M N O P Q R S T U V W X Y Z