Song name
# A B C D E F G H I J K L M N O P Q R S T U V W X Y Z

Senses Fail - Lungs Like Gallows tab

D|-------------------|-------------------|---------------------|--------------|
A|----------15-------|-------------------|---------------------|--------------|
F|-------14----14-15-|-------14h15p14-12~|----9-12-14-12-15/17-|--15-14-14~---|
C|-12-15-------------|----15-------------|-10------------------|--------------|
G|-------------------|-13----------------|---------------------|--------------|
C|-------------------|-------------------|---------------------|--------------|


D|-------------------|--------------------|--------------------|--------------|
A|----------15-17-18-|--------------------|--------------------|--------------|
F|-------14----------|-------14h15p14---17|---9-12-14-12-15/17-|-15-14--------|
C|-12-15-------------|----15----------17--|-10-----------------|------17-15-14|
G|-------------------|-13-----------------|--------------------|--------------|
C|-------------------|--------------------|--------------------|--------------|


D|3----5------6----|-5-6-5h6p5---------|-----8-----8--------|-----9-----9-6/8-|
A|-----------------|-----------6-------|-5-6---5-6---5--6---|-5-6---5-6-------|
F|-0-0---0-0----0--|-------------5-3-2-|--------------------|-----------------|
C|-----------------|-------------------|--------------------|-----------------|
G|-----------------|-------------------|--------------------|-----------------|
C|-----------------|-------------------|--------------------|-----------------|
P.M. .   . .    .

D|3----5------6----|-5-6-5h6p5---------|---------------3~~--|--3-5-6-5-3--5-3---|
A|-----------------|-----------6-------|-4~~-----6~~--------|6-----------6---6-4|
F|-0-0---0-0----0--|-------------5-3-2-|--------------------|-------------------|
C|-----------------|-------------------|--------------------|-------------------|
G|-----------------|-------------------|--------------------|-------------------|
C|-----------------|-------------------|--------------------|-------------------|
P.M. .   . .    . 

D|-3~~-----5~~---6~~-|-10-13-13-13-13--15-|
A|-------------------|--------------------|
F|-------------------|--------------------|
C|-------------------|--------------------|
G|-------------------|--------------------|
C|-------------------|--------------------|


P.M.- Palm Mute
~-Vibrato
Tap to rate this tab
 
# A B C D E F G H I J K L M N O P Q R S T U V W X Y Z