Song name
# A B C D E F G H I J K L M N O P Q R S T U V W X Y Z

Senses Fail - The Fire tab

Song: The Fire
Artist: Senses Fail
Album: The Fire

Guitar 1: Lead - Drop C
Guitar 2: Rhythm - Drop C

Intro:
Guitar 1:
1---------------------------------|
2---------------------------------|
3-7-7-7-7-7-7-7-7-7-7-7-7-5-5-5-5-|
4-x-x-x-x-x-x-x-x-x-x-x-x-x-x-x-x-|   x4
5-5-5-5-5-5-5-5-5-5-5-5-5-3-3-3-3-|
6---------------------------------|

Guitar 2:
1-------------------------------------------------|
2-------------------------------------------------|
3-------------------------------------------------|
4-12-12-12-12-12-12-12-12-12-12-12-12-10-10-10-10-|   x4
5-12-12-12-12-12-12-12-12-12-12-12-12-10-10-10-10-|
6-12-12-12-12-12-12-12-12-12-12-12-12-10-10-10-10-|

Verse:
Guitar 1:
1---------------------------------|    -------------------------|
2---------------------------------|    -------------------------|
3-7-7-7-7-7-7-7-7-7-7-7-7-5-5-5-5-|    -17-17-14-14-12-12-10-10-|
4-x-x-x-x-x-x-x-x-x-x-x-x-x-x-x-x-| x2 --x--x--x--x--x--x--x--x-|
5-5-5-5-5-5-5-5-5-5-5-5-5-3-3-3-3-|    -15-15-12-12-10-10--8--8-|
6---------------------------------|    -------------------------|

1---------------------------------     ----13-13h15p13-|
2---------------------------------     -15-------------|
3-7-7-7-7-7-7-7-7-7-7-7-7-5-5-5-5-     ----------------|
4-x-x-x-x-x-x-x-x-x-x-x-x-x-x-x-x-  x2 ----------------|   x4
5-5-5-5-5-5-5-5-5-5-5-5-5-3-3-3-3-     ----------------|
6---------------------------------     ----------------|

Guitar 2:
1-------------------------------------------------|
2-------------------------------------------------|
3-------------------------------------------------|
4-12-12-12-12-12-12-12-12-12-12-12-12-10-10-10-10-|   x2
5-12-12-12-12-12-12-12-12-12-12-12-12-10-10-10-10-|
6-12-12-12-12-12-12-12-12-12-12-12-12-10-10-10-10-|

1-------------------------|
2-------------------------|
3-10-10-10-10-------------|
4-10-10-10-10-10-10-10-10-|
5-8--8--8--8--10-10-10-10-|
6-------------10-10-10-10-|
Play whole thing twice

Pre Chorus:
Guitar 1:
1----13-13h15p13-|
2-15-------------|
3----------------|
4----------------|   x8
5----------------|
6----------------|

Guitar 2:
1-----------------------------------------|
2-----------------------------------------|
3-----------------------------------------|
4-12-12-12-12-8-8-8-8-12-12-12-12-8-8-8-8-|
5-12-12-12-12-8-8-8-8-12-12-12-12-8-8-8-8-|
6-12-12-12-12-8-8-8-8-12-12-12-12-8-8-8-8-|

Chorus:
Guitar 1:
1-------------------------------------------------|
2-18-18-18-18-------------------------------------|
3-------------17-17-17-17----------------17-15-14-|
4-------------------------15-15-15-15-14----------|
5-------------------------------------------------|
6-------------------------------------------------|

1-------------------------------------------------|
2-------------------------------------------20-18-|
3-14-15-14----------------14-15-14----------------|
4----------17-15-14-15-17----------17-15-14-------|
5-------------------------------------------------|
6-------------------------------------------------|

1-------------------------------------------------|
2-18-18-18-18-------------------------------------|
3-------------17-17-17-17----------------17-15-14-|
4-------------------------15-15-15-15-14----------|
5-------------------------------------------------|
6-------------------------------------------------|

1----------------------------------------------------|
2----------------------------------------------------|
3-14-15-14----------------14-15-14----------10--5-10-|
4----------17-15-14-15-17----------17-15-14--x--x--x-|
5--------------------------------------------8--3--8-|
6----------------------------------------------------|

Guitar 2:
1---------------------------------------------|
2---------------------------------------------|
3---------------------10-10-10-10-------------|
4-12-12-12-12-8-8-8-8-10-10-10-10-10-10-10-10-|   x4
5-12-12-12-12-8-8-8-8--8--8--8--8-10-10-10-10-|
6-12-12-12-12-8-8-8-8-------------10-10-10-10-|

Verse 2:
Guitar 1:
1-------------------------------------------|
2-15-15-15-15-15-15-15-15-15-15-13-13-13-13-|
3-------------------------------------------|
4-------------------------------------------|   x2
5-------------------------------------------|
6-------------------------------------------|

1-20-20-17-17-15-15-13-13-|
2-------------------------|
3-------------------------|
4-------------------------|
5-------------------------|
6-------------------------|
Play whole thing twice

Guitar 2:
1-------------------------------------------------|
2-------------------------------------------------|
3-------------------------------------------------|
4-12-12-12-12-12-12-12-12-12-12-12-12-10-10-10-10-|   x2
5-12-12-12-12-12-12-12-12-12-12-12-12-10-10-10-10-|
6-12-12-12-12-12-12-12-12-12-12-12-12-10-10-10-10-|

1-------------------------|
2-------------------------|
3-10-10-10-10-------------|
4-10-10-10-10-10-10-10-10-|
5-8--8--8--8--10-10-10-10-|
6-------------10-10-10-10-|
Play whole thing twice

Pre Chorus 2:
Guitar 1:
1-------------------------------------|
2-15-15-15-15-3-3-3-3-7-7-7-7-3-3-3-3-|
3-------------x-x-x-x-x-x-x-x-x-x-x-x-|
4-------------1-1-1-1-5-5-5-5-1-1-1-1-|
5-------------------------------------|
6-------------------------------------|

Guitar 2:
1-----------------------------------------|
2-----------------------------------------|
3-----------------------------------------|
4-12-12-12-12-8-8-8-8-12-12-12-12-8-8-8-8-|
5-12-12-12-12-8-8-8-8-12-12-12-12-8-8-8-8-|
6-12-12-12-12-8-8-8-8-12-12-12-12-8-8-8-8-|

Chorus:
Guitar 1:
1-------------------------------------------------|
2-18-18-18-18-------------------------------------|
3-------------17-17-17-17----------------17-15-14-|
4-------------------------15-15-15-15-14----------|
5-------------------------------------------------|
6-------------------------------------------------|

1-------------------------------------------------|
2-------------------------------------------20-18-|
3-14-15-14----------------14-15-14----------------|
4----------17-15-14-15-17----------17-15-14-------|
5-------------------------------------------------|
6-------------------------------------------------|

1-------------------------------------------------|
2-18-18-18-18-------------------------------------|
3-------------17-17-17-17----------------17-15-14-|
4-------------------------15-15-15-15-14----------|
5-------------------------------------------------|
6-------------------------------------------------|

1----------------------------------------------------|
2----------------------------------------------------|
3-14-15-14----------------14-15-14----------10--5-10-|
4----------17-15-14-15-17----------17-15-14--x--x--x-|
5--------------------------------------------8--3--8-|
6----------------------------------------------------|

Guitar 2:
1---------------------------------------------|
2---------------------------------------------|
3---------------------10-10-10-10-------------|
4-12-12-12-12-8-8-8-8-10-10-10-10-10-10-10-10-|   x4
5-12-12-12-12-8-8-8-8--8--8--8--8-10-10-10-10-|
6-12-12-12-12-8-8-8-8-------------10-10-10-10-|

Interlude 1:
BOTH GUITARS:
1----------------------------|
2----------------------------|
3----------------------------|
4----------------------------|   x4
5-0-7-8--0-3-5--0-7-8--7-3-5-|
6-0-7-8--0-3-5--0-7-8--7-3-5-|

Interlude 2:
BOTH GUITARS:
1----------------------|
2----------------------|
3----------------------|
4-0pm-0pm-0pm-13-13-13-|   x8
5-0pm-0pm-0pm-13-13-13-|
6-0pm-0pm-0pm-13-13-13-|

Interlude 3:
BOTH GUITARS:
1---------------------------~~
2---------------------------~~
3----------15-14-12-10-10~--~~
4-12~~~8~~~15-14-12-10-10~--~~
5-12~~~8~~~13-12-10-8--8~~--~~
6-12~~~8~~~------------8~~--~~

Chorus:
Guitar 1:
1-------------------------------------------------|
2-18-18-18-18-------------------------------------|
3-------------17-17-17-17----------------17-15-14-|
4-------------------------15-15-15-15-14----------|
5-------------------------------------------------|
6-------------------------------------------------|

1-------------------------------------------------|
2-------------------------------------------20-18-|
3-14-15-14----------------14-15-14----------------|
4----------17-15-14-15-17----------17-15-14-------|
5-------------------------------------------------|
6-------------------------------------------------|

1-------------------------------------------------|
2-18-18-18-18-------------------------------------|
3-------------17-17-17-17----------------17-15-14-|
4-------------------------15-15-15-15-14----------|
5-------------------------------------------------|
6-------------------------------------------------|

1----------------------------------------------------|
2----------------------------------------------------|
3-14-15-14----------------14-15-14----------10--5-10-|
4----------17-15-14-15-17----------17-15-14--x--x--x-|
5--------------------------------------------8--3--8-|
6----------------------------------------------------|

Guitar 2:
1---------------------------------------------|
2---------------------------------------------|
3---------------------10-10-10-10-------------|
4-12-12-12-12-8-8-8-8-10-10-10-10-10-10-10-10-|   x4
5-12-12-12-12-8-8-8-8--8--8--8--8-10-10-10-10-|
6-12-12-12-12-8-8-8-8-------------10-10-10-10-|

Outro:
Guitar 1:
1---------------------------------|
2---------------------------------|
3-7-7-7-7-7-7-7-7-7-7-7-7-5-5-5-5-|
4-x-x-x-x-x-x-x-x-x-x-x-x-x-x-x-x-|
5-5-5-5-5-5-5-5-5-5-5-5-5-3-3-3-3-|
6---------------------------------|

Guitar 2:
1-------------------------------------------------|
2-------------------------------------------------|
3-------------------------------------------------|
4-12-12-12-12-12-12-12-12-12-12-12-12-10-10-10-10-|
5-12-12-12-12-12-12-12-12-12-12-12-12-10-10-10-10-|
6-12-12-12-12-12-12-12-12-12-12-12-12-10-10-10-10-|

Thanks for viewing! i know the guitar 1 in the chorus isnt perfect but
its rediculously hard to learn it by ear. Please rate and comment!
Tap to rate this tab
 
# A B C D E F G H I J K L M N O P Q R S T U V W X Y Z