Senses Fail - Champagne tab

=====================================================================
                      Champagne - Senses Fail
=====================================================================
Tabbed by: Phat Stud 55

Band's Website:http://www.sensesfail.com

Here's the Key
************************************

| /   slide up
| \   slide down
| h   hammer-on
| p   pull-off
| ~   vibrato
| *   Natural harmonic
| x   Mute note
| b   Bend
| pb  Pre-bend
| br  Bend release
| pbr Pre-bend release
| brb Bend release bend
| P.M Palm Mute
| T.S Tremolo Strum
************************************

The Lead is on top and the Rhythm is on bottom. Parts that are played
at the same time are connected with a "|". If no "|" is present both guitars
play the part at the same time.

Please Rate and comment. If you have any questions, comments or corrections please feel 
free to email me at phatstud55@gmail.com.

Thanks for looking and have fun playing this song.


Intro

E|------0----------0-------5-------------------------------------------------|
B|----7----------7-------7----7--5--7----------------------------------------|
G|--7----------7-------7-----------------------------------------------------|
D|---------------------------------------------------------------------------|
A|---------------------------------------------------------------------------|
D|---------------------------------------------------------------------------|
 |
E|---------------------------------------------------------------------------|
B|---------------------------------------------------------------------------|
G|---/7---------------------/7----------------------------x-x----------------|
D|----------------------------------*12-------------------x-x----------------|
A|----------------------------------*12-------------------x-x----------------|
D|----------------------------------*12-------------------x-x----------------|
 |
E|--12 T.S-------------------------------------------------------------------|
B|---------------------------------------------------------------------------|
G|---------------------------------------------------------------------------|
D|---------------------------------------------------------------------------|
A|---------------------------------------------------------------------------|
D|---------------------------------------------------------------------------|

E|--------------------------------------------------------------------|
B|---------------------------------------------------7-7-7-7-7-7-7-7--|
G|-----111111----9-9-/12-12-12--6-6-6-6-6-6-6-6------7-7-7-7-7-7-7-7--|
D|--0--x-x-x--0--x-x---x--x--x--7-7-7-7-7-7-7-7--x-x-5-5-5-5-5-5-5-5--|
A|--0--9-9-9--0--7-7-/10-10-10--4-4-4-4-4-4-4-4--x-x-5-5-5-5-5-5-5-5--|
D|--0---------0-----------------4-4-4-4-4-4-4-4--x-x-5-5-5-5-5-5-5-5--|
 |
E|--------------------------------------------------------------------|
B|---------------------------------------------------7-7-7-7-7-7-7-7--|
G|-----7-7-7-----6-6-/9--9--9---6-6-6-6-6-6-6-6------7-7-7-7-7-7-7-7--|
D|--0--x-x-x--0--x-x--x--x--x---7-7-7-7-7-7-7-7--x-x-5-5-5-5-5-5-5-5--|
A|--0--5-5-5--0--4-4-/7--7--7---4-4-4-4-4-4-4-4--x-x-5-5-5-5-5-5-5-5--|
D|--0---------0-----------------4-4-4-4-4-4-4-4--x-x-5-5-5-5-5-5-5-5--|

E|---------------------------------------------------------------------------|
B|---------------------------------------------------7-7-7-7-7-7-7-7------5--|
G|-----111111----9-9-/12-12-12--6-6-6-6-6-6-6-6------7-7-7-7-7-7-7-7------7--|
D|--0--x-x-x--0--x-x---x--x--x--7-7-7-7-7-7-7-7--x-x-5-5-5-5-5-5-5-5------0--|
A|--0--9-9-9--0--7-7-/10-10-10--4-4-4-4-4-4-4-4--x-x-5-5-5-5-5-5-5-5------0--|
D|--0---------0-----------------4-4-4-4-4-4-4-4--x-x-5-5-5-5-5-5-5-5------0--|
 |
E|---------------------------------------------------------------------------|
B|------------------------------------------------------------------------5--|
G|-----7-7-7-----6-6--9--9--9---11111111119-9-9------121212121212-1112----7--|
D|--0--x-x-x--0--x-x--x--x--x---x-x-x-x-x-x-x-x-x-x---x-x-x-x-x-x-x--x----0--|
A|--0--5-5-5--0--4-4-/7--7--7---9-9-9-9-9-7-7-7-x-x--101010101010-9-10----0--|
D|--0---------0---------------------------------x-x-----------------------0--|

__________________________________________________
VERSE
__________________________________________________

                                                       Lead Delay On
E|------------0-----0-----5----0--------0-----------------|
B|----------7-----7-----7----7---7----7----8---10--7-8----|
G|---------7-----7-----7-------------7----7--7---------7--|
D|--------------------------------------------------------|
A|--------------------------------------------------------|
D|--------------------------------------------------------|
 |
E|--------------------------------------------------------|
B|--5-----------------------------------------------------|
G|--7-----------------------------------------------------|
D|--0-----------------------------------------------------|
A|--0--let ring-------------------------------------------|
D|--0-----------------------------------------------------|
 |Acoustic Guitar
E|-2-2-2-2-2-2-2-2-2-2-2-2-2-2----------------------------|
B|-3-3-3-3-3-3-3-3-3-3-3-3-3-3-5-5-5-7-7-7-7-7-7-7-7-7-7--|
G|-2-2-2-2-4-4-4-4-4-4-4-4-4-4-6-6-6-7-7-7-7-7-7-7-7-7-7--|
D|-0-0-0-0-4-4-4-4-4-4-4-4-4-4-7-7-7-5-5-5-5-5-5-5-5-5-5--|
A|-----------------------------4-4-4-5-5-5-5-5-5-5-5-5-5--|
D|-----------------------------4-4-4-5-5-5-5-5-5-5-5-5-5--|


E|--------------10--9------------------10--9-------|
B|--10--8---7----------10--10--8---7----------10---|
G|-7---7---7-7------------7---7---7-7--------------|
D|-------------------------------------------------|
A|-------------------------------------------------|
D|-------------------------------------------------|
 |
E|-2-2-2-2-2-2-2-2-2-2-2-2-2-2-2-2-2-2-2-2-2-2-2---|
B|-3-3-3-3-3-3-3-3-3-3-3-3-3-3-3-3-3-3-3-3-3-3-3---|
G|-2-2-2-2-2-2-2-2-2-2-2-4-4-4-4-4-4-4-4-4-4-4-4---|
D|-0-0-0-0-0-0-0-0-0-0-0-4-4-4-4-4-4-4-4-4-4-4-4---|
A|-0-0-0-0-0-0-0-0-0-0-0-2-2-2-2-2-2-2-2-2-2-2-2---|
D|-0-0-0-0-0-0-0-0-0-0-0---------------------------|

                                                 Lead Delay Off
E|--------------10--9------------------10--9---12-----|
B|--10--8---7----------10--10--8---7------------------|
G|-7---7---7-7------------7---7---7-7-----------------|
D|----------------------------------------------------|
A|----------------------------------------------------|
D|----------------------------------------------------|
 |
E|----------------------------------------------------|
B|-7-7-7-7-7-7-7-7-7-7-7--1010101010101010101010------|
G|-7-7-7-7-7-7-7-7-7-7-7--9-9-9-9-9-9-9-9-9-9-9-------|
D|-5-5-5-5-5-5-5-5-5-5-5--7-7-7-7-7-7-7-7-7-7-7-x--x--|
A|-5-5-5-5-5-5-5-5-5-5-5--7-7-7-7-7-7-7-7-7-7-7-x--x--|
D|-5-5-5-5-5-5-5-5-5-5-5--7-7-7-7-7-7-7-7-7-7-7-x--x--|

__________________________________
Chorus
__________________________________


E|--------------------------------------------------------------------|
B|---------------------------------------------------7-7-7-7-7-7-7-7--|
G|-----111111----9-9-/12-12-12--6-6-6-6-6-6-6-6------7-7-7-7-7-7-7-7--|
D|--0--x-x-x--0--x-x---x--x--x--7-7-7-7-7-7-7-7--x-x-5-5-5-5-5-5-5-5--|
A|--0--9-9-9--0--7-7-/10-10-10--4-4-4-4-4-4-4-4--x-x-5-5-5-5-5-5-5-5--|
D|--0---------0-----------------4-4-4-4-4-4-4-4--x-x-5-5-5-5-5-5-5-5--|
 |
E|--------------------------------------------------------------------|
B|---------------------------------------------------7-7-7-7-7-7-7-7--|
G|-----7-7-7-----6-6-/9--9--9---6-6-6-6-6-6-6-6------7-7-7-7-7-7-7-7--|
D|--0--x-x-x--0--x-x--x--x--x---7-7-7-7-7-7-7-7--x-x-5-5-5-5-5-5-5-5--|
A|--0--5-5-5--0--4-4-/7--7--7---4-4-4-4-4-4-4-4--x-x-5-5-5-5-5-5-5-5--|
D|--0---------0-----------------4-4-4-4-4-4-4-4--x-x-5-5-5-5-5-5-5-5--|

E|---------------------------------------------------------------------------|
B|---------------------------------------------------7-7-7-7-7-7-7-7------5--|
G|-----111111----9-9-/12-12-12--6-6-6-6-6-6-6-6------7-7-7-7-7-7-7-7------7--|
D|--0--x-x-x--0--x-x---x--x--x--7-7-7-7-7-7-7-7--x-x-5-5-5-5-5-5-5-5------0--|
A|--0--9-9-9--0--7-7-/10-10-10--4-4-4-4-4-4-4-4--x-x-5-5-5-5-5-5-5-5------0--|
D|--0---------0-----------------4-4-4-4-4-4-4-4--x-x-5-5-5-5-5-5-5-5------0--|
 |
E|---------------------------------------------------------------------------|
B|------------------------------------------------------------------------5--|
G|-----7-7-7-----6-6-/9--9--9---11111111119-9-9------121212121212-1112----7--|
D|--0--x-x-x--0--x-x--x--x--x---x-x-x-x-x-x-x-x-x-x---x-x-x-x-x-x-x--x----0--|
A|--0--5-5-5--0--4-4-/7--7--7---9-9-9-9-9-7-7-7-x-x--101010101010-9-10----0--|
D|--0---------0---------------------------------x-x-----------------------0--|

________________________________________
VERSE
________________________________________

                                                       Lead Delay and Distortion On
E|------------0-----0-----5----0--------0-----------------|
B|----------7-----7-----7----7---7----7----8---10---------|
G|---------7-----7-----7-------------7----7---------------|
D|--------------------------------------------------------|
A|--------------------------------------------------------|
D|--------------------------------------------------------|
 |
E|--------------------------------------------------------|
B|--5-----------------------------------------------------|
G|--7-----------------------------------------------------|
D|--0-----------------------------------------------------|
A|--0--let ring-------------------------------------------|
D|--0-----------------------------------------------------|
 |Acoustic Guitar                                       Rhthym Distortion On
E|-2-2-2-2-2-2-2-2-2-2-2-2-2-2----------------------------|
B|-3-3-3-3-3-3-3-3-3-3-3-3-3-3-5-5-5-7-7-7-7-7-7-7-7-7-7--|
G|-2-2-2-2-4-4-4-4-4-4-4-4-4-4-6-6-6-7-7-7-7-7-7-7-7-7-7--|
D|-0-0-0-0-4-4-4-4-4-4-4-4-4-4-7-7-7-5-5-5-5-5-5-5-5-5-5--|
A|---------2-2-2-2-2-2-2-2-2-2-4-4-4-5-5-5-5-5-5-5-5-5-5--|
D|-----------------------------4-4-4-5-5-5-5-5-5-5-5-5-5--|


E|--------------10--9------------------10--9-------|
B|--10--8---7----------10--10--8---7----------10---|
G|-7---7---7-7------------7---7---7-7--------------|
D|-------------------------------------------------|
A|-------------------------------------------------|
D|-------------------------------------------------|
 |
E|-2-2-2-2-2-2-2-2-2-2-2-2-2-2-2-2-2-2-2-2-2-2-2---|
B|-3-3-3-3-3-3-3-3-3-3-3-3-3-3-3-3-3-3-3-3-3-3-3---|
G|-2-2-2-2-2-2-2-2-2-2-2-4-4-4-4-4-4-4-4-4-4-4-4---|
D|-0-0-0-0-0-0-0-0-0-0-0-4-4-4-4-4-4-4-4-4-4-4-4---|
A|-0-0-0-0-0-0-0-0-0-0-0-2-2-2-2-2-2-2-2-2-2-2-2---|
D|-0-0-0-0-0-0-0-0-0-0-0---------------------------|
P.M*********************************************
                                                 Lead Delay Off
E|--------------10--9------------------10--9---12---------|
B|--10--8---7----------10--10--8---7----------------------|
G|-7---7---7-7------------7---7---7-7---------------------|
D|--------------------------------------------------------|
A|--------------------------------------------------------|
D|--------------------------------------------------------|
 |
E|--------------------------------------------------------|
B|-7-7-7-7-7-7-7-7-7-7-7--1010101010101010101010----------|
G|-7-7-7-7-7-7-7-7-7-7-7--9-9-9-9-9-9-9-9-9-9-9-7*--------|
D|-5-5-5-5-5-5-5-5-5-5-5--9-9-9-9-9-9-9-9-9-9-9---7*-7*-7*|
A|-5-5-5-5-5-5-5-5-5-5-5--7-7-7-7-7-7-7-7-7-7-7-----------|
D|-5-5-5-5-5-5-5-5-5-5-5--7-7-7-7-7-7-7-7-7-7-7-----------|
P.M*********************

_____________________________________________
CHORUS
_____________________________________________


E|--------------------------------------------------------------------|
B|---------------------------------------------------7-7-7-7-7-7-7-7--|
G|-----111111----9-9-/12-12-12--6-6-6-6-6-6-6-6------7-7-7-7-7-7-7-7--|
D|--0--x-x-x--0--x-x---x--x--x--7-7-7-7-7-7-7-7--x-x-5-5-5-5-5-5-5-5--|
A|--0--9-9-9--0--7-7-/10-10-10--4-4-4-4-4-4-4-4--x-x-5-5-5-5-5-5-5-5--|
D|--0---------0-----------------4-4-4-4-4-4-4-4--x-x-5-5-5-5-5-5-5-5--|
 |
E|--------------------------------------------------------------------|
B|---------------------------------------------------7-7-7-7-7-7-7-7--|
G|-----7-7-7-----6-6-/9--9--9---6-6-6-6-6-6-6-6------7-7-7-7-7-7-7-7--|
D|--0--x-x-x--0--x-x--x--x--x---7-7-7-7-7-7-7-7--x-x-5-5-5-5-5-5-5-5--|
A|--0--5-5-5--0--4-4-/7--7--7---4-4-4-4-4-4-4-4--x-x-5-5-5-5-5-5-5-5--|
D|--0---------0-----------------4-4-4-4-4-4-4-4--x-x-5-5-5-5-5-5-5-5--|

E|----------------------------------------------------------------------|
B|---------------------------------------------------7-7-7-7-7-7-7-7----|
G|-----111111----9-9-/12-12-12--6-6-6-6-6-6-6-6------7-7-7-7-7-7-7-7----|
D|--0--x-x-x--0--x-x---x--x--x--7-7-7-7-7-7-7-7--x-x-5-5-5-5-5-5-5-5----|
A|--0--9-9-9--0--7-7-/10-10-10--4-4-4-4-4-4-4-4--x-x-5-5-5-5-5-5-5-5----|
D|--0---------0-----------------4-4-4-4-4-4-4-4--x-x-5-5-5-5-5-5-5-5----|
 |
E|----------------------------------------------------------------------|
B|----------------------------------------------------------------------|
G|-----7-7-7-----6-6-/9--9--9---11111111119-9-9------121212121212-1112--|
D|--0--x-x-x--0--x-x--x--x--x---x-x-x-x-x-x-x-x-x-x---x-x-x-x-x-x-x--x--|
A|--0--5-5-5--0--4-4-/7--7--7---9-9-9-9-9-7-7-7-x-x--101010101010-9-10--|
D|--0---------0---------------------------------x-x---------------------|


E|------------------------------------------------------------------------------|
B|-----9-9-9----7-7-7-7/-11111111-x--13-13-13-13-13-13-13----111111119-9-9-9----|
G|-----x-x-x----x-x-x-x--x-x-x-x--x---x--x--x--x--x--x--x----x-x-x-x-x-x-x-x----|
D|--0--7-7-7-0--5-5-5-5/-9-9-9-9--x--11-11-11-11-11-11-11-x--9-9-9-9-7-7-7-7----|
A|--0--------0------------------------------------------------------------------|
D|--0--------0------------------------------------------------------------------|

E|----------------------------------------------------------------------------|
B|-----------------------------------------------------------7-7-7-7-7-7-7-7--|
G|-----111111---9-9-9-9-/12121212-x--6-6-6-6-6-6-6-6-6-6-----7-7-7-7-7-7-7-7--|
D|--0--x-x-x-0--x-x-x-x--x-x-x-x--x--7-7-7-7-7-7-7-7-7-7-x-x-5-5-5-5-5-5-5-5--|
A|--0--9-9-9-0--7-7-7-7-/10101010-x--4-4-4-4-4-4-4-4-4-4-x-x-5-5-5-5-5-5-5-5--|
D|--0--------0-----------------------4-4-4-4-4-4-4-4-4-4-x-x-5-5-5-5-5-5-5-5--|
___________________________________________________
BREAKDOWN
___________________________________________________

E|----0-0-----0-0--------------------------------------------------------------|
B|----0-0-----0-0------8-8-8-8-8-8-8-101010--------5-5-5-------5-5-5-----5-5---|
G|----7-7-----7-7------7-7-7-7-7-7-7-9-9-9---4-4-4-7-7-7-4-4-4-7-7-7-4-4-7-7---|
D|--0------0-----x--4-/5-5-5-5-5-5-5-7-7-7---4-4-4-0-0-0-4-4-4-0-0-0-4-4-0-0---|
A|--0------0-----x--4-/5-5-5-5-5-5-5-7-7-7---2-2-2-0-0-0-2-2-2-0-0-0-2-2-0-0---|
D|--0------0-----x--4-/5-5-5-5-5-5-5-7-7-7---------0-0-0-------0-0-0-----0-0---|
 |
E|----0-0-----0-0--------------------------------------------------------------|
B|----0-0-----0-0------8-8-8-8-8-8-8-101010--------5-5-5-------5-5-5-----5-5---|
G|----7-7-----7-7------7-7-7-7-7-7-7-9-9-9---4-4-4-7-7-7-4-4-4-7-7-7-4-4-7-7---|
D|--0------0-----x--4-/5-5-5-5-5-5-5-7-7-7---4-4-4-0-0-0-4-4-4-0-0-0-4-4-0-0---|
A|--0------0-----x--4-/5-5-5-5-5-5-5-7-7-7---2-2-2-0-0-0-2-2-2-0-0-0-2-2-0-0---|
D|--0------0-----x--4-/5-5-5-5-5-5-5-7-7-7---------0-0-0-------0-0-0-----0-0---|

E|-----------------------------------------------------------------------|
B|-----------------------------------5-5-5-------5-5-5--------5-5-5------|
G|---------------7--7p6--6-----4-4-4-7-7-7-4-4-4-7-7-7--4-4-4-7-7-7------|x2
D|--7--7p5--5p4-----------7~~~-4-4-4-0-0-0-4-4-4-0-0-0--4-4-4-0-0-0------|
A|-----------------------------2-2-2-0-0-0-2-2-2-0-0-0--2-2-2-0-0-0------|
D|-----------------------------------0-0-0-------0-0-0--------0-0-0------|
 |
E|-----------------------------------------------------------------------|
B|-----------------------------------5-5-5-------5-5-5--------5-5-5------|
G|-----------------------------4-4-4-7-7-7-4-4-4-7-7-7--4-4-4-7-7-7------|
D|--2-2-2-2-2-2-0-0-0-5-5-5-5--4-4-4-0-0-0-4-4-4-0-0-0--4-4-4-0-0-0------|x2
A|--2-2-2-2-2-2-0-0-0-5-5-5-5--2-2-2-0-0-0-2-2-2-0-0-0--2-2-2-0-0-0------|
D|--2-2-2-2-2-2-0-0-0-5-5-5-5--------0-0-0-------0-0-0--------0-0-0------|

E|-------------------------|
B|-------------------------|
G|---------------7--79--9--|
D|--7--7p5--5p4------------|
A|-------------------------|
D|-------------------------|
 |
E|-------------------------|
B|-------------------------|
G|-------------------------|
D|--2-2-2-2-0-0-0-5--0-0---|
A|--2-2-2-2-0-0-0-5--0-0---|
D|--2-2-2-2-0-0-0-5--0-0---|

E|--------------------------------------------|
B|--------------------------------------------|
G|--14-14-14-12-12-12-1111\-7-7-7-7-7-6-6-7/--|
D|---x--x--x--x--x--x-x-x---x-x-x-x-x-x-x-x---|
A|--12-12-12-10-10-10-9-9-\-5-5-5-5-5-4-4-5/--|
D|--------------------------------------------|
 |
E|--------------------------------------------|
B|--------------------------------------------|
G|--------------------------------------------|
D|--2-2-2-2-2-2-2-2-2-2-2-2-2-2-2-2-2-2-2-2---|
A|--2-2-2-2-2-2-2-2-2-2-2-2-2-2-2-2-2-2-2-2---|
D|--2-2-2-2-2-2-2-2-2-2-2-2-2-2-2-2-2-2-2-2---|

E|-----------------------------------------------|
B|-----------------------------------------------|
G|--14-14-14-12-12-12-1111\-7-7-7-7-7/-9-9-9/----|
D|---x--x--x--x--x--x-x-x---x-x-x-x-x--x-x-x-----|
A|--12-12-12-10-10-10-9-9-\-5-5-5-5-5/-7-7-7/----|
D|-----------------------------------------------|
 |
E|-----------------------------------------------|
B|-----------------------------------------------|
G|-----------------------------------------------|
D|-7-7-7-7-7-7-7-7-7-7-7-7-7-7-7-7-7-7-7-7-7-----|
A|-4-4-4-4-4-4-4-4-4-4-4-4-4-4-4-4-4-4-4-4-4-----|
D|-4-4-4-4-4-4-4-4-4-4-4-4-4-4-4-4-4-4-4-4-4-----|

E|-----------------------------------------------|
B|-----------------------------------------------|
G|--14-14-14-12-12-12-1111\--7-7-7-7-7/-9-9-9----|
D|---x--x--x--x--x--x-x-x----x-x-x-x-x--x-x-x----|
A|--12-12-12-10-10-10-9-9-\--5-5-5-5-5/-7-7-7----|
D|-----------------------------------------------|
 |
E|-----------------------------------------------|
B|--7-7-7-7-7-7-7-7-7-7-7-7-7-7-7-7-7-7-7-7-7----|
G|--7-7-7-7-7-7-7-7-7-7-7-7-7-7-7-7-7-7-7-7-7----|
D|--5-5-5-5-5-5-5-5-5-5-5-5-5-5-5-5-5-5-5-5-5----|
A|--5-5-5-5-5-5-5-5-5-5-5-5-5-5-5-5-5-5-5-5-5----|
D|--5-5-5-5-5-5-5-5-5-5-5-5-5-5-5-5-5-5-5-5-5----|

E|------------------------------------|
B|------------------------------------|
G|--14-14-14-14-14-14-14-14-16-14-----|
D|---x--x--x--x--x--x--x--x--x--x-----|
A|--12-12-12-12-12-12-12-12-14-12-----|
D|------------------------------------|

E|------------------------------------|
B|-10101010101010101010101010101010---|
G|-9-9-9-9-9-9-9-9-9-9-9-9-9-9-9-9----|
D|-7-7-7-7-7-7-7-7-7-7-7-7-7-7-7-7----|
A|-7-7-7-7-7-7-7-7-7-7-7-7-7-7-7-7----|
D|-7-7-7-7-7-7-7-7-7-7-7-7-7-7-7-7----|

E|---------------------------------------------------------------------|
B|---------------------------------------------------------------------|
G|---7-7-7------6-6-6---111111---------111111----111111------12-11-----|
D|-0-x-x-x--0---x-x-x---x-x-x---0-0-0--x-x-x-----x-x-x--------x-x------|
A|-0-5-5-5--0---4-4-4---9-9-9---0-0-0--9-9-9-----9-9-9-------10-9------|
D|-0--------0-----------0-0-0---0-0-0--------000-------000-------------|
 |
E|---------------------------------------------------------------------|
B|---------------------------------------------------------------------|
G|--------------9-9-9---111111---------9-9-9-----6-6-6-------12-11-----|
D|-0--------0---x-x-x---x-x-x---0-0-0--x-x-x-----x-x-x--------x-x------|
A|-0--------0---7-7-7---9-9-9---0-0-0--7-7-7-----4-4-4-------10-9------|
D|-0--------0-----------0-0-0---0-0-0--------000-------0-0-0-----------|
_______________________________________________________
CHORUS
_______________________________________________________

E|--------------------------------------------------------------------|
B|---------------------------------------------------7-7-7-7-7-7-7-7--|
G|-----111111----9-9-/12-12-12--6-6-6-6-6-6-6-6------7-7-7-7-7-7-7-7--|
D|--0--x-x-x--0--x-x---x--x--x--7-7-7-7-7-7-7-7--x-x-5-5-5-5-5-5-5-5--|
A|--0--9-9-9--0--7-7-/10-10-10--4-4-4-4-4-4-4-4--x-x-5-5-5-5-5-5-5-5--|
D|--0---------0-----------------4-4-4-4-4-4-4-4--x-x-5-5-5-5-5-5-5-5--|
 |
E|--------------------------------------------------------------------|
B|---------------------------------------------------7-7-7-7-7-7-7-7--|
G|-----7-7-7-----6-6--9--9--9---6-6-6-6-6-6-6-6------7-7-7-7-7-7-7-7--|
D|--0--x-x-x--0--x-x--x--x--x---7-7-7-7-7-7-7-7--x-x-5-5-5-5-5-5-5-5--|
A|--0--5-5-5--0--4-4-/7--7--7---4-4-4-4-4-4-4-4--x-x-5-5-5-5-5-5-5-5--|
D|--0---------0-----------------4-4-4-4-4-4-4-4--x-x-5-5-5-5-5-5-5-5--|

E|---------------------------------------------------------------------------|
B|---------------------------------------------------7-7-7-7-7-7-7-7------5--|
G|-----111111----9-9-/12-12-12--6-6-6-6-6-6-6-6------7-7-7-7-7-7-7-7------7--|
D|--0--x-x-x--0--x-x---x--x--x--7-7-7-7-7-7-7-7--x-x-5-5-5-5-5-5-5-5------0--|
A|--0--9-9-9--0--7-7-/10-10-10--4-4-4-4-4-4-4-4--x-x-5-5-5-5-5-5-5-5------0--|
D|--0---------0-----------------4-4-4-4-4-4-4-4--x-x-5-5-5-5-5-5-5-5------0--|
 |
E|---------------------------------------------------------------------------|
B|------------------------------------------------------------------------5--|
G|-----7-7-7-----6-6--9--9--9---11111111119-9-9------121212121212-1112----7--|
D|--0--x-x-x--0--x-x--x--x--x---x-x-x-x-x-x-x-x-x-x---x-x-x-x-x-x-x--x----0--|
A|--0--5-5-5--0--4-4-/7--7--7---9-9-9-9-9-7-7-7-x-x--101010101010-9-10----0--|
D|--0---------0---------------------------------x-x-----------------------0--|


E|------------------------------------------------------------------------------|
B|-----9-9-9----7-7-7-7/-11111111-x--13-13-13-13-13-13-13----111111119-9-9-9----|
G|-----x-x-x----x-x-x-x--x-x-x-x--x---x--x--x--x--x--x--x----x-x-x-x-x-x-x-x----|
D|--0--7-7-7-0--5-5-5-5/-9-9-9-9--x--11-11-11-11-11-11-11-x--9-9-9-9-7-7-7-7----|
A|--0--------0------------------------------------------------------------------|
D|--0--------0------------------------------------------------------------------|

E|----------------------------------------------------------------------------|
B|-----------------------------------------------------------7-7-7-7-7-7-7-7--|
G|-----111111---9-9-9-9-/12121212-x--6-6-6-6-6-6-6-6-6-6-----7-7-7-7-7-7-7-7--|
D|--0--x-x-x-0--x-x-x-x--x-x-x-x--x--7-7-7-7-7-7-7-7-7-7-x-x-5-5-5-5-5-5-5-5--|
A|--0--9-9-9-0--7-7-7-7-/10101010-x--4-4-4-4-4-4-4-4-4-4-x-x-5-5-5-5-5-5-5-5--|
D|--0--------0-----------------------4-4-4-4-4-4-4-4-4-4-x-x-5-5-5-5-5-5-5-5--|
________________________________________
BREAKDOWN 2
________________________________________

E|----0-0-----0-0---------------------------|
B|----0-0-----0-0------8-8-8-8-8-8-8--------|
G|----7-7-----7-7------7-7-7-7-7-7-7--------|
D|--0------0-----x--4-/5-5-5-5-5-5-5--------|
A|--0------0-----x--4-/5-5-5-5-5-5-5--------|
D|--0------0-----x--4-/5-5-5-5-5-5-5--------|

E|----0-0-----0-0-----------------------------------------|
B|----0-0-----0-0------1010101010101010101010101010101010-|
G|----7-7-----7-7------9-9-9-9-9-9-9-9-9-9-9-9-9-9-9-9-9--|
D|--0------0-----x--5-/7-7-7-7-7-7-7-7-7-7-7-7-7-7-7-7-7--|
A|--0------0-----x--5-/7-7-7-7-7-7-7-7-7-7-7-7-7-7-7-7-7--|
D|--0------0-----x--5-/7-7-7-7-7-7-7-7-7-7-7-7-7-7-7-7-7--|
 |
E|----0-0-----0-0-----------------------------------------|
B|----0-0-----0-0------10101010101010---------------------|
G|----7-7-----7-7------9-9-9-9-9-9-9-7-7-7-7-7-6-6-6-6-6--|
D|--0------0-----x--5-/7-7-7-7-7-7-7-x-x-x-x-x-x-x-x-x-x--|
A|--0------0-----x--5-/7-7-7-7-7-7-7-5-5-5-5-5-4-4-4-4-4--|
D|--0------0-----x--5-/7-7-7-7-7-7-7----------------------|
____________________________________
Outro
____________________________________



E|---------------2----------------------------3---------------------|
B|---------3----------3------------------3---------3----------------|
G|-2-----------------------2----4------------------------4----------|
D|------------------------------------------------------------------|x2
A|------------------------------------------------------------------|
D|------------------------------------------------------------------|
 |
E|-----------------------------2-2-2-2-2-2-2-2-2-2-2-2-2-2-2-2------|
B|-5-5-5-5-5-5-5-5-5-5-5-5-5-5-3-3-3-3-3-3-3-3-3-3-3-3-3-3-3-3------|
G|-7-7-7-7-7-7-7-7-7-7-7-7-7-7-4-4-4-4-4-4-4-4-4-4-4-4-4-4-4-4------|
D|-0-0-0-0-0-0-0-0-0-0-0-0-0-0-4-4-4-4-4-4-4-4-4-4-4-4-4-4-4-4------|x2
A|-0-0-0-0-0-0-0-0-0-0-0-0-0-0-2-2-2-2-2-2-2-2-2-2-2-2-2-2-2-2------|
D|-0-0-0-0-0-0-0-0-0-0-0-0-0-0--------------------------------------|


E|--------------10--9------------------10--9-------|
B|--10--8---7----------10--10--8---7----------10---|
G|-7---7---7-7------------7---7---7-7--------------|
D|-------------------------------------------------|
A|-------------------------------------------------|
D|-------------------------------------------------|
 |
E|---------------------2-2-2-2-2-2-2-2-2-2-2-2-2---|
B|-5-5-5-5-5-5-5-5-5-5-3-3-3-3-3-3-3-3-3-3-3-3-3---|
G|-7-7-7-7-7-7-7-7-7-7-4-4-4-4-4-4-4-4-4-4-4-4-4---|
D|-0-0-0-0-0-0-0-0-0-0-4-4-4-4-4-4-4-4-4-4-4-4-4---|
A|-0-0-0-0-0-0-0-0-0-0-2-2-2-2-2-2-2-2-2-2-2-2-2---|
D|-0-0-0-0-0-0-0-0-0-0-----------------------------|

E|--------------10--9------------------10--12-10---|
B|--10--8---7----------10--10--8---7---------------|
G|-7---7---7-7------------7---7---7-7--------------|
D|-------------------------------------------------|
A|-------------------------------------------------|
D|-------------------------------------------------|
 |
E|-------------------------------------------------|
B|-7-7-7-7-7-7-7-7-7-7-101010101010101010------5---|
G|-7-7-7-7-7-7-7-7-7-7-9-9-9-9-9-9-9-9-9-------7---|
D|-5-5-5-5-5-5-5-5-5-5-7-7-7-7-7-7-7-7-7-------0---|
A|-5-5-5-5-5-5-5-5-5-5-7-7-7-7-7-7-7-7-7-------0---|
D|-5-5-5-5-5-5-5-5-5-5-7-7-7-7-7-7-7-7-7-------0---|

Please Rate and comment. If you have any questions, comments or corrections please feel 
free to email me at phatstud55@gmail.com.

Thanks for looking.
Tap to rate this tab
 
# A B C D E F G H I J K L M N O P Q R S T U V W X Y Z