Senses Fail - Wolves At The Door tab

Senses Fail
"Wolves At The Door"
Tabbed by: Kyle Woodward
Kyle905x@hotmail.com if any questions or corrections


Drop D Tuning


Intro
------------------------------------------------------------------------------------|
------------------------------------------------------------------------------------|
---12-10-9--10----------------------------------------------------------------------|
---0--0--0--0-----------------------------------------------------------------------|
---0--0--0--0-----------------------------------------------------------------------|
---0--0--0--0-----------------------------------------------------------------------|


2nd Part of Intro Guitar 1
----5--------------5----------------------------------------------------------------|
----6--------------6----------------------------------------------------------------|
----7----10---8----7---10---8-------------------------------------------------------|
----0----10---5----0---10---5-------------------------------------------------------|
----0----8----5----0---8----5-------------------------------------------------------|
----0----8----5----0---8----5---5/8-7-----------------------------------------------|


Guitar 2
-------------------------------------------------------------------------------------------|
-------------------------------------------------------------------------------------------|
---12--10--9--10----17--19--15--14-------------------17--19--15--14--15--14-2nd Time Only--|
----x--x---x--x------x---x---x---x--------------------x---x---x---x---x---x----------------|
---10--8---7--8-----15--17--13--12-------------------15--17--13--12--13--12----------------|
-------------------------------------------------------------------------------------------|


3rd Part of Intro Gutar 1
--5---------------------------------------------------------------------------------|
--6---------------------------------------------------------------------------------|
--7---12---8---10-------------------------------------------------------------------|
--0---12---5---10-------------------------------------------------------------------|
--0---10---5---8--------------------------------------------------------------------|
--0---10---5---8----7-8-7-----------------------------------------------------------|


Guitar 2
------------------------------------------------------------------------------------|
------------------------------------------------------------------------------------|
---12-10-9-10---14-12-10-12---14-15-14-12---17-19-15-141514-------------------------|
---x--x--x-x----x--x--x--x----x--x--x--x----x--x--x--x-x-x--------------------------|
---10-8--7-8----12-10-8--10---12-13-12-10---15-17-13-121312-------------------------|
------------------------------------------------------------------------------------|


Verse
-----------------------------------------------------------------------------------------|
-----------------------------------------------------------------------------------------|
----757--------------------------757-----------------------------------------------------|
----xxx-------10--12--8--7-------xxx-----7--8------------12--10--7-8-7-5-2nd Time Only---|
----535-------10--12--8--7-------535-----7--8------------12--10--7-8-7-5-----------------|
----000-------10--12--8--7-------000-----7--8------------12--10--7-8-7-5-----------------|


Verse Part 2
---5-----------------------5--------------------------------------------------------|
---6---------------6-------6--------------------------------------------------------|
---7-----9----12---7-------7-----9----12--------------------------------------------|
---0-----7----12---7-------0-----7----12--------------------------------------------|
---0-----7----10---5-------0-----7----10------------------8--7--5-------------------|
---0-----7----10---5-------0-----7----10---10h12--10--8-----------------------------|


Chorus x2
---5--------------------------------------------------------------------------------|
---6--------------------------------------------------------------------------------|
---7--------------------------------------------------------------------------------|
---0----10--12--8--5---3----10-11---------------------------------------------------|
---0----10--12--8--5---3----10-12---------------------------------------------------|
---0----10--12--8--5---3----10-11---------------------------------------------------|

Last part of Chorus
------------------------------------------------------------------------------------|
------------------------------------------------------------------------------------|
------------------------------------------------------------------------------------|
------------------------------------------------------------------------------------|
------------------------------------------------------------------------------------|
---12--0--12-10--0--10-8--0--8-7-8-10-----------------------------------------------|

Verse
-----------------------------------------------------------------------------------------|
-----------------------------------------------------------------------------------------|
----757--------------------------757-----------------------------------------------------|
----xxx-------10--12--8--7-------xxx-----7--8------------12--10--7-8-7-5-2nd Time Only---|
----535-------10--12--8--7-------535-----7--8------------12--10--7-8-7-5-----------------|
----000-------10--12--8--7-------000-----7--8------------12--10--7-8-7-5-----------------|


Verse Part 2
---5-----------------------5--------------------------------------------------------|
---6---------------6-------6--------------------------------------------------------|
---7-----9----12---7-------7-----9--------------------------------------------------|
---0-----7----12---7-------0-----7-----10-8-0-7-8-7--5-6-7-8\-----------------------|
---0-----7----10---5-------0-----7-----10-8-0-7-8-7--5-6-7-8\-----------------------|
---0-----7----10---5-------0-----7-----10-8-0-7-8-7--5-6-7-8\-----------------------|


Chorus x2
---5--------------------------------------------------------------------------------|
---6--------------------------------------------------------------------------------|
---7--------------------------------------------------------------------------------|
---0----10--12--8--5---3----10-11---------------------------------------------------|
---0----10--12--8--5---3----10-12---------------------------------------------------|
---0----10--12--8--5---3----10-11---------------------------------------------------|

First part of Breakdown
------------------------------------------------------------------------------------|
------------------------------------------------------------------------------------|
----------------------------------------------------10------------------------------|
--8---7--10-----------------------------------------10--7--10-----------------------|
--8---7--10-----------------------------------------8---7--10-----------------------|
--8---7--10---12--0--12-10--0--10-8--0--8-7-8-10----8---7--10-----------------------|


------------------------------------------------------------------------------------|
------------------------------------------------------------------------------------|
------------------------------------------------------------------------------------|
----------------------------------1-------------------------------------------------|
----------------------------------1-------------------------------------------------|
----12--0--12-10--0--10-8--0--8---1-------------------------------------------------|


2nd Part of Breakdown x4
------------------------------------------------------------------------------------|
------------------------------------------------------------------------------------|
------------------------------------------------------------------------------------|
---0xxxxx1-0----7-7---5-5--8-8-87---------------------------------------------------|
---0xxxxx1-0----5-5---3-3--6-6-65---------------------------------------------------|
---0xxxxx1-0------------------------------------------------------------------------|


3rd Part of Breakdown...."I look at myself and the things that ive done...."
------------------------------------------------------------------------------------|
------------------------------------------------------------------------------------|
------------------------------------------------------------------------------------|
------------------------------------------------------------------------------------|
------------------------------------------------------------------------------------|
---12--0--12-10--0--10-8--0--8-7-8-10-----------------------------------------------|


Solo-Coming soon or just look at the other seperate tab for the solo on ultimate guitar


Solo rhythm Guitar x2
---5---------------------------------------------------------------------------------|
---6---------------------------------------------------------------------------------|
---7---10----------------------------------------------------------------------------|
---0---10--3--2----------------------------------------------------------------------|
---0---8---3--3----------------------------------------------------------------------|
---0---8---3--2----------------------------------------------------------------------|


---5---------------------------------------------------------------------------------|
---6---------------------------------------------------------------------------------|
---7---10----------------------------------------------------------------------------|
---0---10--10------------------------------------------------------------------------|
---0---8---8-------------------------------------------------------------------------|
---0---8---7---3x3x5x5x3x5x3x5x2x5---------------------------------------------------|


---5---------------------------------------------------------------------------------|
---6---------------------------------------------------------------------------------|
---7---10----------------------------------------------------------------------------|
---0---10--10--5---2-----------------------------------------------------------------|
---0---8---8---5---3-----------------------------------------------------------------|
---0---8---7---5---2-----------------------------------------------------------------|


Chorus x2
---5---------------------------------------------------------------------------------|
---6---------------------------------------------------------------------------------|
---7---------------------------------------------------------------------------------|
---0----10--12--8--5---3----10-11----------------------------------------------------|
---0----10--12--8--5---3----10-12----------------------------------------------------|
---0----10--12--8--5---3----10-11----------------------------------------------------|

then back to this
---5---------------------------------------------------------------------------------|
---6---------------------------------------------------------------------------------|
---7---10----------------------------------------------------------------------------|
---0---10--10------------------------------------------------------------------------|
---0---8---8-------------------------------------------------------------------------|
---0---8---7---3x3x5x5x3x5x3x5x2x5---------------------------------------------------|


---5---------------------------------------------------------------------------------|
---6---------------------------------------------------------------------------------|
---7---10----------------------------------------------------------------------------|
---0---10--10--2---------------------------------------------------------------------|
---0---8---8---3---------------------------------------------------------------------|
---0---8---7---2---------------------------------------------------------------------|


Outro
------------------------------------------------------------------------------------|
------------------------------------------------------------------------------------|
------------------------------------------------------------------------------------|
------------------------------------------------------------------------------------|
------------------------------------------------------------------------------------|
---12--0--12-10--0--10-8--0--8-7-8-10-----------------------------------------------|


------------------------------------------------------------------------------------|
------------------------------------------------------------------------------------|
------------------------------------------------------------------------------------|
---------------------------------1-1-1-0--------------------------------------------|
---------------------------------1-1-1-0--------------------------------------------|
---12--0--12-10--0--10-8--0--8---1-1-1-0--------------------------------------------|
Tap to rate this tab
 
# A B C D E F G H I J K L M N O P Q R S T U V W X Y Z