Senses Fail - Let It Enfold You tab

By: Senses Fail
Album: Let It Enfold You 
Song: Let It Enfold You
Tabbed: CzarG and with a little help of other tabs.

Hi, this is my first tab posted. I also used the help of another tab for 
some parts. Hope you enjoy it.

Tuning: Drop D 
 * - Palm Mute
 / - Slide
                               -Let It Enfold You-
                                   Guitar One
Intro:
E|-------------------------------------------|
B|-------------------------------------------|
G|-------------------------------------------|
D|----9---------5---------0---------4--------|
A|----9---------5---------0---------4--------|
D|----9-x12-----5-x12-----0-x12-----4-x12----|

   "So the lie now is my weapon"
E|------------------------------------------------------|
B|------------------------------------------------------|
G|------------------------------------------------------|
D|--00-0000------44-4444------55-5555------77-7777------| x2
A|--00-0000-x4---44-4444-x4---55-5555-x4---77-7777-x4---|
D|--00-0000------44-4444------55-5555------77-7777------|
       ****         ****         ****         ****


   "Peace or happiness..."
E|------------------------------------|
B|------------------------------------|
G|------------------------------------|
D|--2-------4------5------------------|
A|--2-x11---4-x4---5-x12--------------|
D|--2-------4------5------------------|

   "So let it enfold you"
E|-------------------------------------------|
B|-------------------------------------------|
G|-------------------------------------------|
D|--0----------------7------5-4--------------|
A|--0-x12------------7-x10--5-4--------------|
D|--0----------------7------5-4--------------|

   "A birth to..."
E|-------------------------------------------|
B|-------------------------------------------|
G|-------------------------------------------|
D|--9-------5-------0-------7----------------|
A|--9-x12---5-x12---0-x12---7-x12------------|
D|--9-------5-------0-------7----------------|

   "So itís true my..."
E|------------------------------------------------------|
B|------------------------------------------------------|
G|------------------------------------------------------|
D|--00-0000------44-4444------55-5555------77-7777------| x2
A|--00-0000-x4---44-4444-x4---55-5555-x4---77-7777-x4---|
D|--00-0000------44-4444------55-5555------77-7777------|
       ****         ****         ****         ****

 "Peace or happiness..."
E|----------------------------------|
B|----------------------------------|
G|----------------------------------|
D|--2-------4------5----------------|
A|--2-x11-/-4-x2-/-5-x12------------|
D|--2-------4------5----------------|

   "So let it enfold you"
E|-------------------------------------------|
B|-------------------------------------------|
G|-------------------------------------------|
D|--0----------------7------5-4--------------|
A|--0-x12------------7-x10--5-4--------------|
D|--0----------------7------5-4--------------|

   "A birth to..."
E|-------------------------------------------|
B|-------------------------------------------|
G|-------------------------------------------|
D|--9-------5-------0-------7----------------|
A|--9-x12---5-x12---0-x12---7-x12------------|
D|--9-------5-------0-------7----------------|

    "And I am dead, your eyes are light"
E|-------------------------------------------------|
B|-------------------------------------------------|
G|-------------------------------------------------|
D|--9-------5-------0-------4-------5----5-5--5-5--|
A|--9-x12---5-x12---0-x12---4-x12---5----5-5--5-5--|
D|--9-------5-------0-------4-------5----5-5--5-5--|
                                         * *  *
   "Please do this now I beg"
E|---------------------------------------|    |------|
B|---------------------------------------|    |------|
G|---------------------------------------|    |------|
D|--2-------4------5------0------7-------| x4 |--0~--|At the end of the 4th 
A|--2-x11-/-4-x2-/-5-x12--0-x12--7-x12---|    |--0~--|time.
D|--2-------4------5------0------7-------|    |--0~--|

                               -Guitar Two-
Intro:
E|----------------------------------------------------------------|
B|----7---8--7---5--7---8--7---7----------------------------------|
G|--7---7------7------7------7----x3----6h7p67-6h7p67-6h7p677777--|
D|----------------------------------------------------------------| #1
A|----------------------------------------------------------------|
D|----------------------------------------------------------------|

   "So the lie now is my weapon"
E|------------------------------------------------------|
B|------------------------------------------------------|
G|------------------------------------------------------|           #2
D|--00-0000------44-4444------55-5555------77-7777------| 
A|--00-0000-x4---44-4444-x4---55-5555-x4---77-7777-x4---|
D|--00-0000------44-4444------55-5555------77-7777------|
       ****         ****         ****         ****

   "I'd lay my guts..."
E|-----------------------------|
B|--7--8--7-5--7--8------------|
G|---77-77-7-77-77-7-----------|
D|--------------------x4-------|                                    #3
A|-----------------------------|
D|-----------------------------|
   *****************   The 4th time release close to the end.

   "Peace or happiness"
E|---------------------------------------------|
B|---------------------------------------------|                    #4
G|--9--------11------12-------14-------12------|                  
D|--X-x11*---X-x4*---X--x6*---X--x3*---X--x3*--| *(+ or - Times, he strums 
A|--7--------9-------10-------12-------10------|   faster)
D|---------------------------------------------|

   "So let it enfold you"
E|-------------------------------------------|
B|-------------------------------------------|
G|-------------------------------------------|
D|--0----------------7------5-4--------------|                      #5
A|--0-x12------------7-x10--5-4--------------|
D|--0----------------7------5-4--------------|

E|----------------------------------------------------------------|
B|----7---8--7---5--7---8--7---7----------------------------------|
G|--7---7------7------7------7----x3----6h7p67-6h7p67-6h7p677777--|
D|----------------------------------------------------------------| #6
A|----------------------------------------------------------------|
D|----------------------------------------------------------------|

E|------------------------------------------------------|
B|------------------------------------------------------|
G|------------------------------------------------------|
D|--00-0000------44-4444------55-5555------77-7777------| 
A|--00-0000-x4---44-4444-x4---55-5555-x4---77-7777-x4---|
D|--00-0000------44-4444------55-5555------77-7777------|
       ****         ****         ****         ****

E|-----------------------------|
B|--7--8--7-5--7--8------------|
G|---77-77-7-77-77-7-----------|
D|-----------------------------| x4
A|-----------------------------|
D|-----------------------------|
    **************** (The 4th time release close to end).

 Repeat #4-6. 
 Then this down here.

   "And I am dead, your eyes are light"
E|-------------------------------------------------|
B|-------------------------------------------------|
G|-------------------------------------------------|
D|--9-------5-------0-------4-------5----5-5--5-5--|
A|--9-x12---5-x12---0-x12---4-x12---5----5-5--5-5--|
D|--9-------5-------0-------4-------5----5-5--5-5--|

E|-------------------------------------------------|
B|---7----7----7----7----7----7----7----7----------|
G|----7----7----7----7----7----7----7----7---------|
D|--0----0----4----4----5----5----7----7-----------| x4
A|-------------------------------------------------|
D|-------------------------------------------------|

   "Please do this now I beg"
E|------------------------------------------------------------|
B|------------------------------------------------------------| x4(last note
G|--12------14-----9-------7------11------12-----9------7-----| ring at end).
D|--X-x11*--X-x3*--X-x11*--X-x3*--X-x10*--X-x3*--X-x9*--X-x3*-|*(Not exact go
A|--10------12-----7-------5------9-------10-----7------5-----|  with beat)
D|------------------------------------------------------------|

I was to lazy to put in the chords because I got lazy doing this for so long.
Any way, hope you enjoyed.
    
Tap to rate this tab
 
# A B C D E F G H I J K L M N O P Q R S T U V W X Y Z