Senses Fail - Saint Anthony tab

-------------------------------------------------------------------------------
		      Saint Anthony - Senses Fail
-------------------------------------------------------------------------------
Tabbed by:Phat Stud 55
Email:phatstud55@gmail.com

Tuning:Drop D (DADGBe)


e|------------------------------------------------------------------|
B|------------------------------------------------------------------|
G|-----11-11111111x--11111111111111x--11-11111111-x--9-12-12-12-12--|
D|-x---x--x-x-x-x-x--x-x-x-x-x-x-x-x--x--x-x-x-x--x--x--x--x--x--x--|
A|-x---9--9-9-9-9-x--9-9-9-9-9-9-9-x--9--9-9-9-9--x--7/10-10-10-10--|
D|-x----------------------------------------------------------------|
 |
e|-----2--2-2-2-2-----------------------------------2--2-2-2-2------|
B|-----3--3-3-3-3--------------------8--8-8-8-8-----3--3-3-3-3------|
G|-----4--4-4-4-4----6--6-6-6-6-6----7--7-7-7-7-----2--2-2-2-2------|
D|-x---4--4-4-4-4-x--7--7-7-7-7-7--x-5--5-5-5-5--x--0--0-0-0-0------|
A|-x---2--2-2-2-2-x--4--4-4-4-4-4--x-5--5-5-5-5--x--0--0-0-0-0------|
D|-x--------------x--4--4-4-4-4-4--x-5--5-5-5-5--x--0--0-0-0-0------|

e|------------------------------------------------------------------|
B|------------------------------------------------------------------|
G|-----11-11111111x--6-6-6-6-6-6-6-x-7--7-7-7-7--x--11119-12-11-----|
D|-x---x--x-x-x-x-x--x-x-x-x-x-x-x-x-x--x-x-x-x--x--x-x-x-x--x------|
A|-x---9--9-9-9-9-x--4-4-4-4-4-4-4-x-5--5-5-5-5--x--9-9\7-10-9------|
D|-x----------------------------------------------------------------|
 |
e|-----2--2-2-2-2-----------------------------------2--2-2-2-2------|
B|-----3--3-3-3-3--------------------8--8-8-8-8-----3--3-3-3-3------|
G|-----4--4-4-4-4----6--6-6-6-6-6----7--7-7-7-7-----2--2-2-2-2------|
D|-x---4--4-4-4-4-x--7--7-7-7-7-7--x-5--5-5-5-5--x--0--0-0-0-0------|
A|-x---2--2-2-2-2-x--4--4-4-4-4-4--x-5--5-5-5-5--x--0--0-0-0-0------|
D|-x--------------x--4--4-4-4-4-4--x-5--5-5-5-5--x--0--0-0-0-0------|


__________________________
VERSE
__________________________


e|-------------------------------------------------------------------|
B|-3-----------------------------------------------------------------|
G|-4----------------------------------------------------------7-7----|
D|-4--4-4-4-4-4-4-4-4-4---------------------------------------5-5----|
A|-2--2-2-2-2-2-2-2-2-2-4-4-4-4-4-4-4-4-4-5-5-5-5-5-5-5-5-5-5-5-5----|
D|----------------------4-4-4-4-4-4-4-4-4-5-5-5-5-5-5-5-5-5-5-5-5----|
P.M   ********************************************************

e|-----------------------------|
B|-----------------------------|
G|---111111-12---9-9-9-9-11----|
D|-x-x-x-x---x---x-x-x-x-x-----|
A|-x-9-9-9/-10-\-7-7-7-7/9-----|
D|-x---------------------------|
 |
e|-2---------------------------|
B|-3---------------------------|
G|-2-------------2--2-2-2-2----|
D|-0--0-0-0-0-x--2--2-2-2-2----|
A|-0--0-0-0-0-x--0--0-0-0-0----|
D|-0--0-0-0-0-x----------------|

e|---------------------------------------------------------------------------|
B|---------------7-7-7-7-7-7-7-5-5-5-5-5-------------------------------------|
G|-4--4-4-4-4-4--------------------------6-6-6-6-6-6-6-6-7-7-4-4-4-6-6-6-7---|
D|---------------------------------------------------------------------------|
A|---------------------------------------------------------------------------|
D|---------------------------------------------------------------------------|
 |
e|---------------------------------------------------------------------------|
B|-3-------------------------------------------------------------------------|
G|-4--------------------------------------------------------------------7-7--|
D|-4--4-4-4-4-4-2-2-2-2-2-2-2-2-4-4-4-4-4-------------------------------5-5--|
A|-2--2-2-2-2-2-4-4-4-4-4-4-4-4-5-5-5-5-5-4-4-4-4-4-4-4-4-4-4-5-5-5-5-5-5-5--|
D|----------------------------------------4-4-4-4-4-4-4-4-4-4-5-5-5-5-5-5-5--|
P.M   ******************************************************************

e|-------------------------------|
B|-3-----------7-------9---------|
G|-4-----------7-------8---------|
D|-4-----------5-------7---------|
A|-2-----------5-------7---------|
D|-------------5-------7---------|
 |
e|-------------------------------|
B|-------------------------------|
G|---7---7---7---3---3---5---5---|
D|-7---7---7---4---4---6---6-----|
A|-------------------------------|
D|-------------------------------|

_______________________________
Chorus
_______________________________


e|---------------------------------------------------------------------------|
B|-------------10-10-10-10---7-7-7-7-7-------------10-10-10-10---7-7-7-7-7---|
G|-7-7-7-7-7-7-------------9-----------7-7-7-7-7-7-------------9-------------|
D|---------------------------------------------------------------------------|
A|---------------------------------------------------------------------------|
D|---------------------------------------------------------------------------|

e|-2-------------------------------------------------------------------------|
B|-3-----------------------------------3-------------------------------------|
G|-2-----------------------------------4-------------------------------------|
D|-0-----------------------------------4-------------------------------------|
A|-0-----------------------------------2-------------------------------------|
D|-0-------------------------------------------------------------------------|

e|-----------------------------------------10-----------10-------------------|
B|-------------10-10-10-10-------------7h8---10-8-7-8-7----10-8-7-8----------|
G|-7-7-7-7-7-7-------------9-9-9-9-9-9------------------------------7--------|
D|---------------------------------------------------------------------------|
A|---------------------------------------------------------------------------|
D|---------------------------------------------------------------------------|
 |
e|---------------------------------------------------------------------------|
B|--------------------------------------7------------------------------------|
G|-6------------------------------------7------------------------------------|
D|-7------------------------------------5------------------------------------|
A|-4------------------------------------5------------------------------------|
D|-4------------------------------------5------------------------------------|

Repeat Chorus

_____________________
INTERLUDE
_____________________

e|------------------------------------------------------------------|
B|------------------------------------------------------------------|
G|-----11-11111111x--11111111111111x--11-11111111-x--9-12-12-12-12--|
D|-x---x--x-x-x-x-x--x-x-x-x-x-x-x-x--x--x-x-x-x--x--x--x--x--x--x--|
A|-x---9--9-9-9-9-x--9-9-9-9-9-9-9-x--9--9-9-9-9--x--7/10-10-10-10--|
D|-x----------------------------------------------------------------|
 |
e|-----2--2-2-2-2-----------------------------------2--2-2-2-2------|
B|-----3--3-3-3-3--------------------8--8-8-8-8-----3--3-3-3-3------|
G|-----4--4-4-4-4----6--6-6-6-6-6----7--7-7-7-7-----2--2-2-2-2------|
D|-x---4--4-4-4-4-x--7--7-7-7-7-7--x-5--5-5-5-5--x--0--0-0-0-0------|
A|-x---2--2-2-2-2-x--4--4-4-4-4-4--x-5--5-5-5-5--x--0--0-0-0-0------|
D|-x--------------x--4--4-4-4-4-4--x-5--5-5-5-5--x--0--0-0-0-0------|

e|------------------------------------------------------------------|
B|------------------------------------------------------------------|
G|-----11-11111111x--6-6-6-6-6-6-6-x-7--7-7-7-7--x--11119-12-11----|
D|-x---x--x-x-x-x-x--x-x-x-x-x-x-x-x-x--x-x-x-x--x--x-x-x-x--x------|
A|-x---9--9-9-9-9-x--4-4-4-4-4-4-4-x-5--5-5-5-5--x--9-9\7-10-9------|
D|-x----------------------------------------------------------------|
 |
e|-----2--2-2-2-2-----------------------------------2--2-2-2-2------|
B|-----3--3-3-3-3--------------------8--8-8-8-8-----3--3-3-3-3------|
G|-----4--4-4-4-4----6--6-6-6-6-6----7--7-7-7-7-----2--2-2-2-2------|
D|-x---4--4-4-4-4-x--7--7-7-7-7-7--x-5--5-5-5-5--x--0--0-0-0-0------|
A|-x---2--2-2-2-2-x--4--4-4-4-4-4--x-5--5-5-5-5--x--0--0-0-0-0------|
D|-x--------------x--4--4-4-4-4-4--x-5--5-5-5-5--x--0--0-0-0-0------|



_________________________________
VERSE 2
_________________________________



e|-------------------------------------------------------------------|
B|-3-----------------------------------------------------------------|
G|-4----------------------------------------------------------7-7----|
D|-4--4-4-4-4-4-4-4-4-4---------------------------------------5-5----|
A|-2--2-2-2-2-2-2-2-2-2-4-4-4-4-4-4-4-4-4-5-5-5-5-5-5-5-5-5-5-5-5----|
D|----------------------4-4-4-4-4-4-4-4-4-5-5-5-5-5-5-5-5-5-5-5-5----|
P.M   ********************************************************

e|-----------------------------|
B|-----------------------------|
G|---111111-12---9-9-9-9-11----|
D|-x-x-x-x---x---x-x-x-x-x-----|
A|-x-9-9-9/-10-\-7-7-7-7/9-----|
D|-x---------------------------|

e|-2---------------------------|
B|-3---------------------------|
G|-2-------------2--2-2-2-2----|
D|-0--0-0-0-0-x--2--2-2-2-2----|
A|-0--0-0-0-0-x--0--0-0-0-0----|
D|-0--0-0-0-0-x----------------|

e|---------------------------------------5-5-5-------------------------------|
B|-----------------------------5-5-5-5-5-------------------------------------|
G|-4--4-4-4-4-4--7-7-7-7-6-6-6-----------------7-7-7-7-7-7-7-7---------------|
D|-------------------------------------------------------------7-7-7-7-7-7-7-|
A|---------------------------------------------------------------------------|
D|---------------------------------------------------------------------------|
 |
e|---------------------------------------------------------------------------|
B|-3-------------------------------------------------------------------------|
G|-4--------------------------------------------------------------------7-7--|
D|-4--4-4-4-4-4-2-2-2-2-2-2-2-2-4-4-4-4-4-------------------------------5-5--|
A|-2--2-2-2-2-2-4-4-4-4-4-4-4-4-5-5-5-5-5-4-4-4-4-4-4-4-4-4-4-5-5-5-5-5-5-5--|
D|----------------------------------------4-4-4-4-4-4-4-4-4-4-5-5-5-5-5-5-5--|
P.M   ******************************************************************

e|-----------------------------|
B|-----------------------------|
G|---111111-12---9-9-9-9-11----|
D|-x-x-x-x---x---x-x-x-x-x-----|
A|-x-9-9-9/-10-\-7-7-7-7/9-----|
D|-x---------------------------|
 |
e|-2---------------------------|
B|-3---------------------------|
G|-2-------------2--2-2-2-2----|
D|-0--0-0-0-0-x--2--2-2-2-2----|
A|-0--0-0-0-0-x--0--0-0-0-0----|
D|-0--0-0-0-0-x----------------|

e|---------------------------------------------------------------------------|
B|---------------------------------------------------------------------------|
G|---7-8---7-8---7-8---7---7-8---7-8---7---7-8---7-8--7---7-8---7-8---8-7---7|
D|-7-----7-----7-----7---7-----7-----7---7-----7----7---7-----7-----7-----7--|
A|---------------------------------------------------------------------------|
D|---------------------------------------------------------------------------|
 |
e|---------------------------------------------------------------------------|
B|---------------------------------------------------------------------------|
G|------------------------------------7/9------------------7-7-7-7-7-6-6-6-6-|
D|-2----------------------------------x-x-4--4-4-4-4-4-6-6-7-7-7-7-7-7-7-7-7-|
A|-2--2-2-2-2-2-2-4-4-4-4-4-5-5-5-5-5-5/7-2--2-2-2-2-2-4-4-5-5-5-5-5-4-4-4-4-|
D|-2--2-2-2-2-2-2-4-4-4-4-4-5-5-5-5-5----------------------------------------|
P.M   *******************************        *********

_____________________
CHORUS
_____________________


e|---------------------------------------------------------------------------|
B|-------------10-10-10-10---7-7-7-7-7-------------10-10-10-10---7-7-7-7-7---|
G|-7-7-7-7-7-7-------------9-----------7-7-7-7-7-7-------------9-------------|
D|---------------------------------------------------------------------------|
A|---------------------------------------------------------------------------|
D|---------------------------------------------------------------------------|

e|-2-------------------------------------------------------------------------|
B|-3-----------------------------------3-------------------------------------|
G|-2-----------------------------------4-------------------------------------|
D|-0-----------------------------------4-------------------------------------|
A|-0-----------------------------------2-------------------------------------|
D|-0-------------------------------------------------------------------------|

e|-----------------------------------------10-----------10-------------------|
B|-------------10-10-10-10-------------7h8---10-8-7-8-7----10-8-7-8----------|
G|-7-7-7-7-7-7-------------9-9-9-9-9-9---------------------------------------|
D|---------------------------------------------------------------------------|
A|---------------------------------------------------------------------------|
D|---------------------------------------------------------------------------|
 |
e|---------------------------------------------------------------------------|
B|--------------------------------------7------------------------------------|
G|-6------------------------------------7------------------------------------|
D|-7------------------------------------5------------------------------------|
A|-4------------------------------------5------------------------------------|
D|-4------------------------------------5------------------------------------|

Repeat the Play

e|----------10-----10--12--10---|
B|------7-8----7-8--------------|
G|-9-7--------------------------|
D|------------------------------|
A|------------------------------|
D|------------------------------|
 |
e|------------------------------|
B|-10---------------------------|
G|-9-----------------------11---|
D|-7-----------------------9----|
A|-7-----------------------9----|
D|-7-----------------------9----|


_____________________________________
BREAKDOWN
_____________________________________


e|------------------------------------------------------------|
B|------------------------------------------------------------|
G|--11-11111111--9---7---4---2--4--1111111111-9--1112-14-12-11|
D|------------------------------------------------------------|
A|--9--9-9-9-9---7---5---2---0--2/-9-9-9-9-9--7--9-10-12-10-9-|
D|------------------------------------------------------------|


e|------------------------------------------------------------|
B|------------------------------------------------------------|
G|-11------------9-----------------11---------9---------------|
D|-9-------------7-------2-------2-9----------7-----0---0-----|
A|-9-------------7-------2----0--2-9----------7-----0-2-0-----|
D|-9-------------7-------2----0--2-9----------7-----0-2-0-----|
                              *                       *

e|--------------------------------------------------------------------------|
B|--------------------------------------------------------------------------|
G|-4-4-4-4-6-6-6-6-6-7-7-7-7-6-6-6-6-4-4-4-4-4-4-6-6-6-6-12-12-12-11111111--|
D|-x-x-x-x-x-x-x-x-x-x-x-x-x-x-x-x-x-x-x-x-x-x-x-x-x-x-x-x--x--x--x-x-x-x---|
A|-2-2-2-2-4-4-4-4-4-5-5-5-5-4-4-4-4-2-2-2-2-2-2-4-4-4-4-10-10-10-9-9-9-9---|
D|--------------------------------------------------------------------------|
 |
e|--------------------------------------------------------------------------|
B|--------------------------------------------------------------------------|
G|-7-7-7-7-9-9-9-9-9-111111119-9-9-9-7-7-7-7-7-7-9-9-9-9-12-12-12-1111111---|
D|-x-x-x-x-x-x-x-x-x-x-x-x-x-x-x-x-x-x-x-x-x-x-x-x-x-x-x-x-x-x-x--x-x-x-x---|
A|-5-5-5-5-7-7-7-7-7-9-9-9-9-7-7-7-7-5-5-5-5-5-5-7-7-7-7-10-10-10-9-9-9-9---|
D|--------------------------------------------------------------------------|
 |
e|--------------------------------------------------------------------------|
B|---------0-0-0-0-0-3-3-3-3-0-0-0-0-------------0-0-0-0-0-3-3-3-3-3-3-3-3--|
G|---------2-2-2-2-2-4-4-4-4-2-2-2-2-------------2-2-2-2-2-2-2-2-2-2-2-2-2--|
D|-5-5-5-5-2-2-2-2-2-4-4-4-4-2-2-2-2-5-5-5-5-5-5-2-2-2-2-2-2-2-2-2-2-2-2-2--|
A|-5-5-5-5-0-0-0-0-0-2-2-2-2-0-0-0-0-5-5-5-5-5-5-0-0-0-0-0-0-0-0-0-0-0-0-0--|
D|-5-5-5-5---------------------------5-5-5-5-5-5----------------------------|

____________________________
CHORUS
____________________________


e|---------------------------------------------------------------------------|
B|-------------10-10-10-10---7-7-7-7-7-------------10-10-10-10---7-7-7-7-7---|
G|-7-7-7-7-7-7-------------9-----------7-7-7-7-7-7-------------9-------------|
D|---------------------------------------------------------------------------|
A|---------------------------------------------------------------------------|
D|---------------------------------------------------------------------------|

e|-2-------------------------------------------------------------------------|
B|-3-----------------------------------3-------------------------------------|
G|-2-----------------------------------4-------------------------------------|
D|-0-----------------------------------4-------------------------------------|
A|-0-----------------------------------2-------------------------------------|
D|-0-------------------------------------------------------------------------|

e|-----------------------------------------10-----------10-------------------|
B|-------------10-10-10-10-------------7h8---10-8-7-8-7----10-8-7-8----------|
G|-7-7-7-7-7-7-------------9-9-9-9-9-9---------------------------------------|
D|---------------------------------------------------------------------------|
A|---------------------------------------------------------------------------|
D|---------------------------------------------------------------------------|
 |
e|---------------------------------------------------------------------------|
B|--------------------------------------7------------------------------------|
G|-6------------------------------------7------------------------------------|
D|-7------------------------------------5------------------------------------|
A|-4------------------------------------5------------------------------------|
D|-4------------------------------------5------------------------------------|

Repeat then play


e|----------------------------------------------------------------------|
B|-10-10-10-10-8-8-8-8-8-7-7-7-7-7-10-10-10-10-10-8-8-8-8-8-7-7-7-7-7---|
G|----------------------------------------------------------------------|
D|----------------------------------------------------------------------|
A|----------------------------------------------------------------------|
D|----------------------------------------------------------------------|

e|-2--------------------------------------------------------------------|
B|-3-------------------------------3------------------------------------|
G|-2-------------------------------4------------------------------------|
D|-0-------------------------------4------------------------------------|
A|-0-------------------------------2------------------------------------|
D|-0--------------------------------------------------------------------|

e|-----------------------------------------10-----------10--------------|
B|-10-10-10-10-8-8-8-8-8-8-------------7h8---10-8-7-8-7----10-8-7-8-----|
G|-------------------------9-9-9-9-9-9----------------------------------|
D|----------------------------------------------------------------------|
A|----------------------------------------------------------------------|
D|----------------------------------------------------------------------|
 |
e|----------------------------------------------------------------------|
B|--------------------------------------7-------------------------------|
G|-6------------------------------------7-------------------------------|
D|-7------------------------------------5-------------------------------|
A|-4------------------------------------5-------------------------------|
D|-4------------------------------------5-------------------------------|

________________
OUTRO
________________

e|-------------------------------------------------------------------|
B|-------------------------------------------------------------------|
G|-----11-11111111x--11111111111111x--11-11111111-x--9-12-12-12-12---|
D|-x---x--x-x-x-x-x--x-x-x-x-x-x-x-x--x--x-x-x-x--x--x--x--x--x--x---|
A|-x---9--9-9-9-9-x--9-9-9-9-9-9-9-x--9--9-9-9-9--x--7/10-10-10-10---|
D|-x-----------------------------------------------------------------|
 |
e|-----2--2-2-2-2-----------------------------------2--2-2-2-2-------|
B|-----3--3-3-3-3--------------------8--8-8-8-8-----3--3-3-3-3-------|
G|-----4--4-4-4-4----6--6-6-6-6-6----7--7-7-7-7-----2--2-2-2-2-------|
D|-x---4--4-4-4-4-x--7--7-7-7-7-7--x-5--5-5-5-5--x--0--0-0-0-0-------|
A|-x---2--2-2-2-2-x--4--4-4-4-4-4--x-5--5-5-5-5--x--0--0-0-0-0-------|
D|-x--------------x--4--4-4-4-4-4--x-5--5-5-5-5--x--0--0-0-0-0-------|

e|-------------------------------------------------------------------|
B|-------------------------------------------------------------------|
G|-----11-11111111x--6-6-6-6-6-6-6-x-7--7-7-7-7--x--11119-12-11-11---|
D|-x---x--x-x-x-x-x--x-x-x-x-x-x-x-x-x--x-x-x-x--x--x-x-x-x--x--x----|
A|-x---9--9-9-9-9-x--4-4-4-4-4-4-4-x-5--5-5-5-5--x--9-9\7-10-9--9----|
D|-x------------------------------------------------------------0----|
 |
e|-----2--2-2-2-2-----------------------------------2--2-2-2-2--2----|
B|-----3--3-3-3-3--------------------8--8-8-8-8-----3--3-3-3-3--3----|
G|-----4--4-4-4-4----6--6-6-6-6-6----7--7-7-7-7-----2--2-2-2-2--2----|
D|-x---4--4-4-4-4-x--7--7-7-7-7-7--x-5--5-5-5-5--x--0--0-0-0-0--0----|
A|-x---2--2-2-2-2-x--4--4-4-4-4-4--x-5--5-5-5-5--x--0--0-0-0-0--0----|
D|-x--------------x--4--4-4-4-4-4--x-5--5-5-5-5--x--0--0-0-0-0--0----|
Tap to rate this tab
 
# A B C D E F G H I J K L M N O P Q R S T U V W X Y Z