Song name
# A B C D E F G H I J K L M N O P Q R S T U V W X Y Z

Senses Fail - Masons Revenge tab

=====================================================================
                   Mason's Revenge - Senses Fail
=====================================================================


______________________________________
INTRO
______________________________________

E|--5-----------------|
B|----6-----5--6------|
G|-------5------------|x2
D|--------------------|
A|--------------------|
D|--------------------|
 |
E|-1------------------|
B|-1------------------|
G|-3------------------|x2
D|-3------------------|
A|-1------------------|
D|-1------------------|

e|--5-----5-----------------|
B|----6-----6---5-6---8-6---|
G|------5-----5-----5-----5-|
D|--------------------------|
A|--------------------------|
D|--------------------------|
 |
E|--------------------------|
B|--------------------------|
G|-----0-----0-------0------|
D|---3-----5-------2--------|
A|-1-----3------0-----------|
D|--------------------------|
 
e|--5-----5-----6-------------|
B|----6-----6-----6-----8-6---|
G|------5-----5-----5-------5-|
D|----------------------------|
A|----------------------------|
D|----------------------------|
 |
E|-----------------------------------|
B|-----------------------------------|
G|-----0------0------0-------0--3-2--|
D|---3------5------2-------3--------3|
A|-1------3------0-------1-----------|
D|-----------------------------------|

____________________________________
VERSE
____________________________________Whole thing x2

e|--5-----5-----------------|
B|----6-----6---5-6---8-6---|
G|------5-----5-----5-----5-|
D|--------------------------|
A|--------------------------|
D|--------------------------|
 |
E|--------------------------|
B|--------------------------|
G|---0------0-------0-------|
D|-----3------5-------2-----|
A|-1------3------0----------|
D|--------------------------|
 
e|--5-----5-----6-------------|
B|----6-----6-----6-----8-6---|
G|------5-----5-----5-------5-|
D|----------------------------|
A|----------------------------|
D|----------------------------|
 |
E|--------------------------------|
B|--------------------------------|
G|---0------0-------2---2--3-2----|
D|-----3------5-------2--0-----3--|
A|-1------3------0----------------|
D|--------------------------------|
______________________________________
VERSE PART 2
______________________________________Whole thing x2


E|--------------------------------|
B|--------5----------5-5-6-5------|
G|---5----5-----5----5------------|
D|-----7--7-------7--7------------|
A|-5----------5-------------------|
D|--------------------------------|

E|-------3--------3---------------|
B|---3---3---3----3---------------|
G|-----5-5-----5--5---------------|
D|-5-------5----------------------|
A|--------------------------------|
D|--------------------------------|

____________________________________
VERSE PART 3
____________________________________

E|----------------------------------------------3---|
B|----------3-----------3-----6-----5------6------6-|
G|---5----5---5---5---5---5-------------------------|
D|-3---3--------3---3-------3---3-----3------3------|x2
A|--------------------------------------------------|
D|--------------------------------------------------|
 |
E|--------------------------------------------------|
B|--------------------------------------------------|
G|-3---3-3-3-5----5-5-5-----2--2-2-2-3------3-3-3-3-|
D|-3---3-3-3-5----5-5-5-----2--2-2-2-3------3-3-3-3-|x2
A|-1---1-1-1-3----3-3-3-----0--0-0-0-1------1-1-1-1-|
D|--------------------------------------------------|
 P.M************************************************

Distortion On
E|------------------------------------------------------------------------------|
B|------------------------------------------------------------------------------|
G|-3--3-3-3--5--5-5-5--2--2-2--3--3-3-3-3--3-3-3--5--5-5-5--2--2-2-2--3-3-3-3-3-|
D|-3--3-3-3--5--5-5-5--2--2-2--3--3-3-3-3--3-3-3--5--5-5-5--2--2-2-2--3-3-3-3-3-|
A|-1--1-1-1--3--3-3-3--0--0-0--1--1-1-1-1--1-1-1--3--3-3-3--0--0-0-0--1-1-1-1-1-|
D|------------------------------------------------------------------------------|
P.M*****************************************************************************


E|-----------------------------------3--------------------------------------3---|
B|-------------------------------------6--------------------------------------6-|
G|---5----------5------5---3-2----5--------5--------5-----5---5---5---5---5-----|
D|-----3----------3------3-----3-------------3---------3-----3---3--3---3-------|
A|------------------------------------------------------------------------------|
D|------------------------------------------------------------------------------|
 |
E|------------------------------------------------------------------------------|
B|------------------------------------------------------------------------------|
G|-3--3-3-3--5--5-5-5--2--2-2--3--3-3-3-3--3-3-3--5--5-5-5--2--2-2-2--3-3-3-3-3-|
D|-3--3-3-3--5--5-5-5--2--2-2--3--3-3-3-3--3-3-3--5--5-5-5--2--2-2-2--3-3-3-3-3-|
A|-1--1-1-1--3--3-3-3--0--0-0--1--1-1-1-1--1-1-1--3--3-3-3--0--0-0-0--1-1-1-1-1-|
D|------------------------------------------------------------------------------|
P.M*****************************************************************************


E|-------------------------------------------------------|
B|-3--3-3-3--3-3-3-3-------------------------------------|
G|-5--5-5-5--5-5-5-5-5-7-5-3--3-3-3-3--3-3-3--5-5-5-5-5--|
D|-0--0-0-0--0-0-0-0-5-7-5-3--3-3-3-3--3-3-3--5-5-5-5-5--|
A|-0--0-0-0--0-0-0-0-3-5-3-1--1-1-1-1--1-1-1--3-3-3-3-3--|
D|-0--0-0-0--0-0-0-0-------------------------------------|
 |
E|-------------------------------------------------------|
B|-3--3-3-3--3-3-3-3-------------------------------------|
G|-5--5-5-5--5-5-5-5-9-109-7--7-7-7-7--7-7-7--9-9-9-9-9--|
D|-0--0-0-0--0-0-0-0-x-x-x-x--x-x-x-x--x-x-x--x-x-x-x-x--|
A|-0--0-0-0--0-0-0-0-7-8-7-5--5-5-5-5--5-5-5--7-7-7-7-7--|
D|-0--0-0-0--0-0-0-0-------------------------------------|

___________________________________
Chorus
___________________________________

E|-5-----5-----5------3------5-----5-----5------3------|
B|---6-----6-----6------6------6-----6-----6------6----|
G|-----5-----5-----5------5------5-----5-----5------5--|
D|-----------------------------------------------------|
A|-----------------------------------------------------|
D|-----------------------------------------------------|
 |
E|-----------------------------------------------------|
B|-6-6-6-6-6-6-6-6-6-6---------------------------------|
G|-5-5-5-5-5-5-5-5-5-5---------------------------------|
D|-3-3-3-3-3-3-3-3-3-3---------0-000-0-000-0-000-0000--|
A|-3-3-3-3-3-3-3-3-3-3---------0-000-0-000-0-000-0000--|
D|-3-3-3-3-3-3-3-3-3-3--3-5-5--0-000-0-000-0-000-0000--|
                          

E|-5-----5-----5------3------5-----5-----3------5----------|
B|---6-----6-----6------6------6-----6-----6------6--------|
G|-----5-----5-----5------5------5-----5-----5------5------|
D|---------------------------------------------------------|
A|---------------------------------------------------------|
D|---------------------------------------------------------|
 |
E|---------------------------------------------------------|
B|---------------------------------------------------------|
G|-3-3-3-3-3-3-3-3-3-3-3-5--5-5-5-5--5-5-5-4-444-4-444-----|
D|-3-3-3-3-3-3-3-3-3-3-3-3--3-3-3-3--3-3-3-5-555-5-555-----|
A|-1-1-1-1-1-1-1-0-0-0-0-3--3-3-3-3--3-3-3-2-222-2-222-----|
D|-----------------------3--3-3-3-3--3-3-3-2-222-2-222-----|

E|-5-----5-----5------3------5-----5-----5------3------|
B|---6-----6-----6------6------6-----6-----6------6----|
G|-----5-----5-----5------5------5-----5-----5------5--|
D|-----------------------------------------------------|
A|-----------------------------------------------------|
D|-----------------------------------------------------|
 |
E|-----------------------------------------------------|
B|-6-6-6-6-6-6-6-6-6-6---------------------------------|
G|-5-5-5-5-5-5-5-5-5-5---------------------------------|
D|-3-3-3-3-3-3-3-3-3-3---------0-000-0-000-0-000-xxxx--|
A|-3-3-3-3-3-3-3-3-3-3---------0-000-0-000-0-000-xxxx--|
D|-3-3-3-3-3-3-3-3-3-3--3-5-5--0-000-0-000-0-000-xxxx--|
                          

E|-5-----5-----5------3------5-----5-----3------5----------|
B|---6-----6-----6------6------6-----6-----6------6--------|
G|-----5-----5-----5------5------5-----5-----5------5------|
D|---------------------------------------------------------|
A|---------------------------------------------------------|
D|---------------------------------------------------------|
 |
E|---------------------------------------------------------|
B|---------------------------------------------------------|
G|-3-3-3-3-3-3-3-3-3-3-3-5--5-5-5-5--5-5-5-4-444-4-444-----|
D|-3-3-3-3-3-3-3-3-3-3-3-3--3-3-3-3--3-3-3-5-555-5-555-----|
A|-1-1-1-1-1-1-1-0-0-0-0-3--3-3-3-3--3-3-3-2-222-2-222-----|
D|-----------------------3--3-3-3-3--3-3-3-2-222-2-222-----|

_______________________________
VERSE 2
_______________________________


E|---------------------------------------------------------------------------------|
B|-----------------------------------------6--6-------6-----6-------------------6--|
G|---5----------5------5---3-2----2----3-5-----5-------5------5---3-2---2---3-5----|
D|-----3----------3------3-----3-----3--------------------------------3---3--------|
A|---------------------------------------------------------------------------------|
D|---------------------------------------------------------------------------------|
 |
E|------------------------------------------------------------------------------|
B|------------------------------------------------------------------------------|
G|-3--3-3-3--5--5-5-5--2--2-2--3--3-3-3-3--3-3-3--5--5-5-5--2--2-2-2--3-3-3-3-3-|
D|-3--3-3-3--5--5-5-5--2--2-2--3--3-3-3-3--3-3-3--5--5-5-5--2--2-2-2--3-3-3-3-3-|
A|-1--1-1-1--3--3-3-3--0--0-0--1--1-1-1-1--1-1-1--3--3-3-3--0--0-0-0--1-1-1-1-1-|
D|------------------------------------------------------------------------------|
P.M*****************************************************************************

E|------------------------------------------------------------------------------|
B|---6--------6------6--------------------6----6---6----6---6---6---6---6-------|
G|-----5--------5------5--3-2---5--3-2------5---5----5----5---5---5---5---5-----|
D|---------------------------3--------3-----------------------------------------|
A|------------------------------------------------------------------------------|
D|------------------------------------------------------------------------------|

E|------------------------------------------------------------------------------|
B|------------------------------------------------------------------------------|
G|-3--3-3-3--5--5-5-5--2--2-2--3--3-3-3-3--3-3-3--5--5-5-5--2--2-2-2--3-3-3-3-3-|
D|-3--3-3-3--5--5-5-5--2--2-2--3--3-3-3-3--3-3-3--5--5-5-5--2--2-2-2--3-3-3-3-3-|
A|-1--1-1-1--3--3-3-3--0--0-0--1--1-1-1-1--1-1-1--3--3-3-3--0--0-0-0--1-1-1-1-1-|
D|------------------------------------------------------------------------------|
P.M*****************************************************************************
___________________________________
Chorus
___________________________________


E|-5-----5-----5------3------5-----5-----5------3------|
B|---6-----6-----6------6------6-----6-----6------6----|
G|-----5-----5-----5------5------5-----5-----5------5--|
D|-----------------------------------------------------|
A|-----------------------------------------------------|
D|-----------------------------------------------------|
 |
E|-----------------------------------------------------|
B|-6-6-6-6-6-6-6-6-6-6---------------------------------|
G|-5-5-5-5-5-5-5-5-5-5---------------------------------|
D|-3-3-3-3-3-3-3-3-3-3---------0-000-0-000-0-000-0000--|
A|-3-3-3-3-3-3-3-3-3-3---------0-000-0-000-0-000-0000--|
D|-3-3-3-3-3-3-3-3-3-3--3-5-5--0-000-0-000-0-000-0000--|
                          

E|-5-----5-----5------3------5-----5-----3------5----------|
B|---6-----6-----6------6------6-----6-----6------6--------|
G|-----5-----5-----5------5------5-----5-----5------5------|
D|---------------------------------------------------------|
A|---------------------------------------------------------|
D|---------------------------------------------------------|
 |
E|---------------------------------------------------------|
B|---------------------------------------------------------|
G|-3-3-3-3-3-3-3-3-3-3-3-5--5-5-5-5--5-5-5-4-444-4-444-----|
D|-3-3-3-3-3-3-3-3-3-3-3-3--3-3-3-3--3-3-3-5-555-5-555-----|
A|-1-1-1-1-1-1-1-0-0-0-0-3--3-3-3-3--3-3-3-2-222-2-222-----|
D|-----------------------3--3-3-3-3--3-3-3-2-222-2-222-----|

E|-5-----5-----5------3------5-----5-----5------3------|
B|---6-----6-----6------6------6-----6-----6------6----|
G|-----5-----5-----5------5------5-----5-----5------5--|
D|-----------------------------------------------------|
A|-----------------------------------------------------|
D|-----------------------------------------------------|
 |
E|-----------------------------------------------------|
B|-6-6-6-6-6-6-6-6-6-6---------------------------------|
G|-5-5-5-5-5-5-5-5-5-5---------------------------------|
D|-3-3-3-3-3-3-3-3-3-3---------0-000-0-000-0-000-xxxx--|
A|-3-3-3-3-3-3-3-3-3-3---------0-000-0-000-0-000-xxxx--|
D|-3-3-3-3-3-3-3-3-3-3--3-5-5--0-000-0-000-0-000-xxxx--|
                          

E|-5-----5-----5------3------5-----5-----3------5----------|
B|---6-----6-----6------6------6-----6-----6------6--------|
G|-----5-----5-----5------5------5-----5-----5------5------|
D|---------------------------------------------------------|
A|---------------------------------------------------------|
D|---------------------------------------------------------|
 |
E|---------------------------------------------------------|
B|---------------------------------------------------------|
G|-3-3-3-3-3-3-3-3-3-3-3-5--5-5-5-5--5-5-5-4-444-4-444-----|
D|-3-3-3-3-3-3-3-3-3-3-3-3--3-3-3-3--3-3-3-5-555-5-555-----|
A|-1-1-1-1-1-1-1-0-0-0-0-3--3-3-3-3--3-3-3-2-222-2-222-----|
D|-----------------------3--3-3-3-3--3-3-3-2-222-2-222-----|

______________________________
BREAKDOWN
______________________________


E|----------------------------------------------|
B|-----------5h6-6-6-6-6------------3h5-5-5-5-5-|
G|----------------------------------------------|
D|-0-0-0-0-0--------------0-0-0-0-0-------------|
A|-0-0-0-0-0--------------0-0-0-0-0-------------|
D|-0-0-0-0-0--------------0-0-0-0-0-------------|
 |
E|----------------------------------------------|
B|-----------8h1010101010------------6h8-8-8-8-8|
G|----------------------------------------------|
D|-0-0-0-0-0--------------0-0-0-0-0-------------|
A|-0-0-0-0-0--------------0-0-0-0-0-------------|
D|-0-0-0-0-0--------------0-0-0-0-0-------------|

E|-----------------------------|
B|-----------------------------|
G|-------5-----------5---------|
D|---7-----7-----7-----7-------|
A|-5---5-----5-5---5-----5-----|
D|-----------------------------|
 |
E|-----------------------------|
B|-----------------------------|
G|-101010101010101010101010----|
D|-101010101010101010101010----|
A|-8-8-8-8-8-8-8-8-8-8-8-8-----|
D|-8-8-8-8-8-8-8-8-8-8-8-8-----|


E|----------------------------------------------|
B|-----------5h6-6-6-6-6------------3h5-5-5-5-5-|
G|----------------------------------------------|
D|-000000000--------------000000000-------------|
A|-000000000--------------000000000-------------|
D|-000000000--------------000000000-------------|
 |P.M*******              *********
E|----------------------------------------------|
B|-----------8h1010101010------------6h8-8-8-8-8|
G|----------------------------------------------|
D|-000000000--------------000000000-------------|
A|-000000000--------------000000000-------------|
D|-000000000--------------000000000-------------|
  P.M*******              *********

E|-----------------------------|
B|-----------------------------|
G|-------5-----------5---------|
D|---7-----7-----7-----7-------|
A|-5---5-----5-5---5-----5-----|
D|-----------------------------|
 |
E|-----------------------------|
B|-----------------------------|
G|-101010101010101010101010----|
D|-101010101010101010101010----|
A|-8-8-8-8-8-8-8-8-8-8-8-8-----|
D|-8-8-8-8-8-8-8-8-8-8-8-8-----|

E|----------------------------------------------|
B|--10101010108-8-8-8-6-6-6-6-6--11108----------|
G|--x-x-x-x-x-x-x-x-x-x-x-x-x-x--x-x-x----------|
D|--7-7-7-7-7-5-5-5-5-3-3-3-3-3--8-7-5----------|
A|----------------------------------------------|
D|----------------------------------------------|
 |
E|----------------------------------------------|
B|----------------------------------------------|
G|--7-7-7-7-7-5-5-5-5---------------------------|
D|--7-7-7-7-7-5-5-5-5-5-5-5-5-5---8-7-3---------|
A|--5-5-5-5-5-3-3-3-3-5-5-5-5-5---8-7-3---------|
D|--------------------3-3-3-3-3---8-7-3---------|


E|----------------------------------------------|
B|--10-1011108--8-108-6--6-6-6-6-11108----------|
G|--x--x-x-x-x--x-x-x-x--x-x-x-x-x-x-x----------|
D|--7--7-8-7-5--5-7-5-3--3-3-3-3-8-7-5----------|
A|----------------------------------------------|
D|----------------------------------------------|
 |
E|----------------------------------------------|
B|----------------------------------------------|
G|--7-7-7-7-7-5-5-5-5---------------------------|
D|--7-7-7-7-7-5-5-5-5-3-3-3-3-3-7-7-7-7-7-------|
A|--5-5-5-5-5-3-3-3-3-3-3-3-3-3-7-7-7-7-7-------|
D|--------------------3-3-3-3-3-7-7-7-7-7-------|

E|----------------------------------------------|
B|--10-1011108--8-108-6--6-6-6-6-11108----------|
G|--x--x-x-x-x--x-x-x-x--x-x-x-x-x-x-x----------|
D|--7--7-8-7-5--5-7-5-3--3-3-3-3-8-7-5----------|
A|----------------------------------------------|
D|----------------------------------------------|
 |
E|-------------------------------------------------------------|
B|-------------------------------------------------------------|
G|-7-7-7-7-7-9-9-9-9-1010101010--------------------------------|
D|-7-7-7-7-7-9-9-9-9-10101010109-9-9-9-7-7-7-7-5-5-5-5-5-5-----|
A|-5-5-5-5-5-7-7-7-7-8-8-8-8-8-9-9-9-9-7-7-7-7-5-5-5-5-5-5-----|
D|-----------------------------7-7-7-7-5-5-5-5-3-3-3-3-3-3-----|


___________________________________
Chorus
___________________________________


E|-5-----5-----5------3------5-----5-----5------3------|
B|---6-----6-----6------6------6-----6-----6------6----|
G|-----5-----5-----5------5------5-----5-----5------5--|
D|-----------------------------------------------------|
A|-----------------------------------------------------|
D|-----------------------------------------------------|
 |
E|-----------------------------------------------------|
B|-6-6-6-6-6-6-6-6-6-6---------------------------------|
G|-5-5-5-5-5-5-5-5-5-5---------------------------------|
D|-3-3-3-3-3-3-3-3-3-3---------0-000-0-000-0-000-0000--|
A|-3-3-3-3-3-3-3-3-3-3---------0-000-0-000-0-000-0000--|
D|-3-3-3-3-3-3-3-3-3-3--3-5-5--0-000-0-000-0-000-0000--|
                          

E|-5-----5-----5------3------5-----5-----3------5----------|
B|---6-----6-----6------6------6-----6-----6------6--------|
G|-----5-----5-----5------5------5-----5-----5------5------|
D|---------------------------------------------------------|
A|---------------------------------------------------------|
D|---------------------------------------------------------|
 |
E|---------------------------------------------------------|
B|---------------------------------------------------------|
G|-3-3-3-3-3-3-3-3-3-3-3-5--5-5-5-5--5-5-5-4-444-4-444-----|
D|-3-3-3-3-3-3-3-3-3-3-3-3--3-3-3-3--3-3-3-5-555-5-555-----|
A|-1-1-1-1-1-1-1-0-0-0-0-3--3-3-3-3--3-3-3-2-222-2-222-----|
D|-----------------------3--3-3-3-3--3-3-3-2-222-2-222-----|

E|-5-----5-----5------3------5-----5-----5------3------|
B|---6-----6-----6------6------6-----6-----6------6----|
G|-----5-----5-----5------5------5-----5-----5------5--|
D|-----------------------------------------------------|
A|-----------------------------------------------------|
D|-----------------------------------------------------|
 |
E|-----------------------------------------------------|
B|-6-6-6-6-6-6-6-6-6-6---------------------------------|
G|-5-5-5-5-5-5-5-5-5-5---------------------------------|
D|-3-3-3-3-3-3-3-3-3-3---------0-000-0-000-0-000-xxxx--|
A|-3-3-3-3-3-3-3-3-3-3---------0-000-0-000-0-000-xxxx--|
D|-3-3-3-3-3-3-3-3-3-3--3-5-5--0-000-0-000-0-000-xxxx--|
                          

E|-5-----5-----5------3------5-----5-----3------5----------|
B|---6-----6-----6------6------6-----6-----6------6--------|
G|-----5-----5-----5------5------5-----5-----5------5------|
D|---------------------------------------------------------|
A|---------------------------------------------------------|
D|---------------------------------------------------------|
 |
E|---------------------------------------------------------|
B|---------------------------------------------------------|
G|-3-3-3-3-3-3-3-3-3-3-3-5--5-5-5-5--5-5-5-4-444-4-444-----|
D|-3-3-3-3-3-3-3-3-3-3-3-3--3-3-3-3--3-3-3-5-555-5-555-----|
A|-1-1-1-1-1-1-1-0-0-0-0-3--3-3-3-3--3-3-3-2-222-2-222-----|
D|-----------------------3--3-3-3-3--3-3-3-2-222-2-222-----|

_______________________
OUTRO
_______________________


E|----------------------------------------------|
B|-----------5h6-6-6-6-6------------3h5-5-5-5-5-|
G|----------------------------------------------|
D|-0-0-0-0-0--------------0-0-0-0-0-------------|
A|-0-0-0-0-0--------------0-0-0-0-0-------------|
D|-0-0-0-0-0--------------0-0-0-0-0-------------|
 |
E|----------------------------------------------| 
B|-----------8h1010101010------------6h8-8-8-8-8|
G|----------------------------------------------|
D|-0-0-0-0-0--------------0-0-0-0-0-------------|
A|-0-0-0-0-0--------------0-0-0-0-0-------------|
D|-0-0-0-0-0--------------0-0-0-0-0-------------|

E|---------------------------------------------------|
B|-----------5h6-6-6-6-6------------3h5-5-5-5-5------|
G|-----------------------------------------------5-3-|
D|-0-0-0-0-0--------------0-0-0-0-0------------------|
A|-0-0-0-0-0--------------0-0-0-0-0------------------|
D|-0-0-0-0-0--------------0-0-0-0-0------------------|
 |
E|---------------------------------------------------| 
B|-----------8h1010101010------------6h8-8-8-8-8-----|
G|-----------------------------------------------9-7-|
D|-0-0-0-0-0--------------0-0-0-0-0------------------|
A|-0-0-0-0-0--------------0-0-0-0-0------------------|
D|-0-0-0-0-0--------------0-0-0-0-0------------------|






Tap to rate this tab
 
# A B C D E F G H I J K L M N O P Q R S T U V W X Y Z