Song name
# A B C D E F G H I J K L M N O P Q R S T U V W X Y Z

Senses Fail - Blackout tab

______________________________________________________________________________
-Song: Blackout
-Album: Life Is Not A Waiting Room
-Artist: Senses fail
-Difficulty: 6/10

This is one of my favourite songs of all time, so I tabbed it. It sounds so easy to play
but this was damned difficult to tab out. Anyway, any suggestions, corrections and
(hopefully not) complaints, you can email me at:

This_addy_sucks@hotmail.co.uk

Or just leave a comment :)

Iím also doing requests because I have way too much free time, so if you need a song
tabbing just let me know and Iíll see what I can do.
_______________________________________________________________________________

Tuning: Drop D (DADGBE)
---Intro---

Lead:
E|----------------------------------------------------15---------------|
B|-------------18---------------17-------------------------------------|
G|-16-17-16-14------16-17-16-14-------17-16-14-12--------17-12-16-17---| X2
D|---------------------------------------------------------------------|
A|---------------------------------------------------------------------|
D|---------------------------------------------------------------------|

Rhythm:
E|---------------------------------------------------------------------|
B|---------------------------------------------------------------------|
G|-2-2-2-2/10-------2-2-2-2/9----------9-9-10-9\5-----9-9-10-2-5-------| X2
D|-2-2-2-2/10-------2-2-2-2/9----------x-x-x--x\x-----x-x-x--2-5-------|
A|-0-0-0-0/8--------0-0-0-0/7----------7-7-8--7\3-----7-7-8--0-3-------|
D|---------------------------------------------------------------------|

---Verse---

Lead/Rhythm:
E|---------------------------------------------------------------------|
B|---------------------------------------------------------------------|
G|-2-------------------------------5-5-5-5-5-5-5-5-5-5-5-5-5-5-5-5-----|
D|-2-------------------------------5-5-5-5-5-5-5-5-5-5-5-5-5-5-5-5-----|
A|-0-------------------------------3-3-3-3-3-3-3-3-3-3-3-3-3-3-3-3-----|
D|---------------------------------------------------------------------|
                                             |This part has an effect, but it sounds
just right to hammer on the chords|

Lead/Rhythm:
E|---------------------------------------------------------------------|
B|---------------------------------------------------------------------|
G|---------------------------------------------------------------------|
D|-5-5-5-5-5-5-5-5-5-5-5-5-5-5-5-5-3-3-3-3-3-3-3-3-3-3-3-3-3-3-3-3-----|
A|-5-5-5-5-5-5-5-5-5-5-5-5-5-5-5-5-3-3-3-3-3-3-3-3-3-3-3-3-3-3-3-3-----|
D|-5-5-5-5-5-5-5-5-5-5-5-5-5-5-5-5-3-3-3-3-3-3-3-3-3-3-3-3-3-3-3-3-----|
                                             |This part has an effect, but it sounds
just right to hammer on the chords|

Lead/Rhythm:
E|---------------------------------------------------------------------|
B|---------------------------------------------------------------------|
G|-2-2-2-2-2-2-2-2-2-2-2-2-2-2-2-2-5-5-5-5-5-5-5-5-5-5-5-5-5-5-5-5-----|
D|-2-2-2-2-2-2-2-2-2-2-2-2-2-2-2-2-5-5-5-5-5-5-5-5-5-5-5-5-5-5-5-5-----|
A|-0-0-0-0-0-0-0-0-0-0-0-0-0-0-0-0-3-3-3-3-3-3-3-3-3-3-3-3-3-3-3-3-----|
D|---------------------------------------------------------------------|
                                             |This part has an effect, but it sounds
just right to hammer on the chords|

Lead/Rhythm:
E|---------------------------------------------------------------------|
B|---------------------------------------------------------------------|
G|---------------------------------------------------------------------|
D|-5-5-5-5-5-5-5-5-5-5-5-5-5-5-5-5-3-3-3-3-3-3-3-3-3-3-3-3-3-3-3-3-----|
A|-5-5-5-5-5-5-5-5-5-5-5-5-5-5-5-5-3-3-3-3-3-3-3-3-3-3-3-3-3-3-3-3-----|
D|-5-5-5-5-5-5-5-5-5-5-5-5-5-5-5-5-3-3-3-3-3-3-3-3-3-3-3-3-3-3-3-3-----|
                                             |This part has an effect, but it sounds
just right to hammer on the chords|

---Pre-Chorus---

Lead/Rhythm:
E|---------------------------------------------------------------------|
B|---------------------------------------------------------------------|
G|-----99999999999-----77777777777-------9-9-------------9-9-----------|
D|-7-7-xxxxxxxxxxx-5-5-xxxxxxxxxxx-0-0-0-x-x-0-0-0-3-3-3-x-x-3-3-3-----|
A|-7-7-77777777777-5-5-55555555555-0-0-0-7-7-0-0-0-3-3-3-7-7-3-3-3-----|
D|-7-7-------------5-5-------------0-0-0-----0-0-0-3-3-3-----3-3-3-----|

Lead/Rhythm:
E|---------------------------------------------------------------------|
B|---------------------------------------------------------------------|
G|-----99999999999-----77777777777-------------------------------------|
D|-7-7-xxxxxxxxxxx-5-5-xxxxxxxxxxx-3-3-3-3-3-3-3-3-5-------------------|
A|-7-7-77777777777-5-5-55555555555-3-3-3-3-3-3-3-3-5-------------------|
D|-7-7-------------5-5-------------3-3-3-3-3-3-3-3-5-------------------|

---Chorus---

Lead:
E|---------------------------------------------------------------------|
B|---------------------------------------------------------------------|
G|-5-5-5-5-5-5-5-5-5-5-5-5-5-5-5-5-7-7-7-7-7-7-7-7-7-7-7-7-7-7-7-7-----|
D|-x-x-x-x-x-x-x-x-x-x-x-x-x-x-x-x-x-x-x-x-x-x-x-x-x-x-x-x-x-x-x-x-----|
A|-3-3-3-3-3-3-3-3-3-3-3-3-3-3-3-3-5-5-5-5-5-5-5-5-5-5-5-5-5-5-5-5-----|
D|---------------------------------------------------------------------|

Rhythm:
E|---------------------------------------------------------------------|
B|---------------------------------------------------------------------|
G|---------------------------------------------------------------------|
D|-0-0-0-0-0-0-0-0-0-0-0-0-0-0-0-0-3-3-3-3-3-3-3-3-3-3-3-3-3-3-3-3-----|
A|-0-0-0-0-0-0-0-0-0-0-0-0-0-0-0-0-3-3-3-3-3-3-3-3-3-3-3-3-3-3-3-3-----|
D|-0-0-0-0-0-0-0-0-0-0-0-0-0-0-0-0-3-3-3-3-3-3-3-3-3-3-3-3-3-3-3-3-----|

Lead:
E|---------------------------------------------------------------------|
B|---------------------------------------------------------------------|
G|-9-9-9-9-9-9-9-9-7-7-7-7-7-7-7-7-5-5-5-5-5-5-5-5-5-5-5-5-5-5-5-5-----|
D|-x-x-x-x-x-x-x-x-x-x-x-x-x-x-x-x-x-x-x-x-x-x-x-x-x-x-x-x-x-x-x-x-----|
A|-7-7-7-7-7-7-7-7-5-5-5-5-5-5-5-5-3-3-3-3-3-3-3-3-3-3-3-3-3-3-3-3-----|
D|---------------------------------------------------------------------|

Rhythm:
E|---------------------------------------------------------------------|
B|---------------------------------------------------------------------|
G|---------------------------------------------------------------------|
D|-7-7-7-7-7-7-7-7-5-5-5-5-5-5-5-5-3-3-3-3-3-3-3-3-3-3-3-3-3-3-3-3-----|
A|-7-7-7-7-7-7-7-7-5-5-5-5-5-5-5-5-3-3-3-3-3-3-3-3-3-3-3-3-3-3-3-3-----|
D|-7-7-7-7-7-7-7-7-5-5-5-5-5-5-5-5-3-3-3-3-3-3-3-3-3-3-3-3-3-3-3-3-----|

Lead:
E|---------------------------------------------------------------------|
B|---------------------------------------------------------------------|
G|-9-------10------12------15------7-7-7-7-7-7-7-7-7-7-7-7-7-7-7-7-----|
D|-x-------x-------x-------x-------x-x-x-x-x-x-x-x-x-x-x-x-x-x-x-x-----|
A|-7-------8-------10------13------5-5-5-5-5-5-5-5-5-5-5-5-5-5-5-5-----|
D|---------------------------------------------------------------------|

Rhythm:
E|---------------------------------------------------------------------|
B|---------------------------------------------------------------------|
G|---------------------------------------------------------------------|
D|-0-0-0-0-0-0-0-0-0-0-0-0-0-0-0-0-3-3-3-3-3-3-3-3-3-3-3-3-3-3-3-3-----|
A|-0-0-0-0-0-0-0-0-0-0-0-0-0-0-0-0-3-3-3-3-3-3-3-3-3-3-3-3-3-3-3-3-----|
D|-0-0-0-0-0-0-0-0-0-0-0-0-0-0-0-0-3-3-3-3-3-3-3-3-3-3-3-3-3-3-3-3-----|

Lead:
E|---------------------------------------------------------------------|
B|---------------------------------------------------------------------|
G|-9-9-9-9-9-9-9-9-7-7-7-7-7-7-7-7-5-5-5-5-5-5-5-5-5-5-5-5-5-5-5-5-----|
D|-x-x-x-x-x-x-x-x-x-x-x-x-x-x-x-x-x-x-x-x-x-x-x-x-x-x-x-x-x-x-x-x-----|
A|-7-7-7-7-7-7-7-7-5-5-5-5-5-5-5-5-3-3-3-3-3-3-3-3-3-3-3-3-3-3-3-3-----|
D|---------------------------------------------------------------------|

Rhythm:
E|---------------------------------------------------------------------|
B|---------------------------------------------------------------------|
G|---------------------------------------------------------------------|
D|-7-7-7-7-7-7-7-7-5-5-5-5-5-5-5-5-3-3-3-3-3-3-3-3-3-3-3-3-3-3-3-3-----|
A|-7-7-7-7-7-7-7-7-5-5-5-5-5-5-5-5-3-3-3-3-3-3-3-3-3-3-3-3-3-3-3-3-----|
D|-7-7-7-7-7-7-7-7-5-5-5-5-5-5-5-5-3-3-3-3-3-3-3-3-3-3-3-3-3-3-3-3-----|

---Post Chorus---

Lead:
E|----------------------------------------------------15---------------|
B|-------------18---------------17-------------------------------------|
G|-16-17-16-14------16-17-16-14-------17-16-14-12--------17-12-16-17---| X2
D|---------------------------------------------------------------------|
A|---------------------------------------------------------------------|
D|---------------------------------------------------------------------|

Rhythm:
E|---------------------------------------------------------------------|
B|---------------------------------------------------------------------|
G|-2-2-2-2/10-------2-2-2-2/9----------9-9-10-9\5-----9-9-10-2-5-------| X2
D|-2-2-2-2/10-------2-2-2-2/9----------x-x-x--x\x-----x-x-x--2-5-------|
A|-0-0-0-0/8--------0-0-0-0/7----------7-7-8--7\3-----7-7-8--0-3-------|
D|---------------------------------------------------------------------|

---Verse 2---

Lead/Rhythm:
E|---------------------------------------------------------------------|
B|---------------------------------------------------------------------|
G|-22222-9-------------------------55555-5-----------------------------|
D|-22222-x-------------------------55555-x-----------------------------|
A|-00000-7-------------------------33333-3-----------------------------|
D|---------------------------------------------------------------------|

Lead/Rhythm:
E|---------------------------------------------------------------------|
B|---------------------------------------------------------------------|
G|-------7-------------------------------5-----------------------------|
D|-55555-x-------------------------33333-x-----------------------------|
A|-55555-5-------------------------33333-3-----------------------------|
D|-55555---------------------------33333-------------------------------|

Lead/Rhythm:
E|---------------------------------------------------------------------|
B|---------------------------------------------------------------------|
G|-2--------2---2--2--------2---2--5--------5---5--5---55555-----------|
D|-2---222222---2--2---222222---2--5---555555---5--5---55555-----------|
A|-0---000000---0--0---000000---0--3---333333---3--3---33333-----------|
D|---------------------------------------------------------------------|
       .....           .....           .....           .....

Lead/Rhythm:
E|---------------------------------------------------------------------|
B|---------------------------------------------------------------------|
G|---------------------------------------------------------------------|
D|-5--------5---5--5--------5---5--3-----3-3-----3-3-3-3-3---35--35----|
A|-5---555555---5--5---555555---5--3---333-3---333-3-3-3-3-35--35------|
D|-5---555555---5--5---555555---5--3---333-3---333-3-3-3-3-------------|
       .....           .....           ..      ..

---Pre-Chorus---

Lead/Rhythm:
E|---------------------------------------------------------------------|
B|---------------------------------------------------------------------|
G|-----99999999999-----77777777777-------9-9-------------9-9-----------|
D|-7-7-xxxxxxxxxxx-5-5-xxxxxxxxxxx-0-0-0-x-x-0-0-0-3-3-3-x-x-3-3-3-----|
A|-7-7-77777777777-5-5-55555555555-0-0-0-7-7-0-0-0-3-3-3-7-7-3-3-3-----|
D|-7-7-------------5-5-------------0-0-0-----0-0-0-3-3-3-----3-3-3-----|

Lead/Rhythm:
E|---------------------------------------------------------------------|
B|---------------------------------------------------------------------|
G|-----99999999999-----77777777777-------------------------------------|
D|-7-7-xxxxxxxxxxx-5-5-xxxxxxxxxxx-3-3-3-3-3-3-3-3-3-3-3-3-3-3-3-3-----|
A|-7-7-77777777777-5-5-55555555555-3-3-3-3-3-3-3-3-3-3-3-3-3-3-3-3-----|
D|-7-7-------------5-5-------------3-3-3-3-3-3-3-3-3-3-3-3-3-3-3-3-----|

Lead/Rhythm:
E|---------------------------------------------------------------------|
B|---------------------------------------------------------------------|
G|---------------------------------------------------------------------|
D|-5-5-5-5-5-5-5-5-5-5-5-5---------------------------------------------|
A|-5-5-5-5-5-5-5-5-5-5-5-5-55555555------------------------------------|
D|-5-5-5-5-5-5-5-5-5-5-5-5-55555555------------------------------------|
                           ........

---Chorus---

Lead:
E|---------------------------------------------------------------------|
B|---------------------------------------------------------------------|
G|-5-5-5-5-5-5-5-5-5-5-5-5-5-5-5-5-7-7-7-7-7-7-7-7-7-7-7-7-7-7-7-7-----|
D|-x-x-x-x-x-x-x-x-x-x-x-x-x-x-x-x-x-x-x-x-x-x-x-x-x-x-x-x-x-x-x-x-----|
A|-3-3-3-3-3-3-3-3-3-3-3-3-3-3-3-3-5-5-5-5-5-5-5-5-5-5-5-5-5-5-5-5-----|
D|---------------------------------------------------------------------|

Rhythm:
E|---------------------------------------------------------------------|
B|---------------------------------------------------------------------|
G|---------------------------------------------------------------------|
D|-0-0-0-0-0-0-0-0-0-0-0-0-0-0-0-0-3-3-3-3-3-3-3-3-3-3-3-3-3-3-3-3-----|
A|-0-0-0-0-0-0-0-0-0-0-0-0-0-0-0-0-3-3-3-3-3-3-3-3-3-3-3-3-3-3-3-3-----|
D|-0-0-0-0-0-0-0-0-0-0-0-0-0-0-0-0-3-3-3-3-3-3-3-3-3-3-3-3-3-3-3-3-----|

Lead:
E|---------------------------------------------------------------------|
B|---------------------------------------------------------------------|
G|-9-9-9-9-9-9-9-9-7-7-7-7-7-7-7-7-5-5-5-5-5-5-5-5-5-5-5-5-5-5-5-5-----|
D|-x-x-x-x-x-x-x-x-x-x-x-x-x-x-x-x-x-x-x-x-x-x-x-x-x-x-x-x-x-x-x-x-----|
A|-7-7-7-7-7-7-7-7-5-5-5-5-5-5-5-5-3-3-3-3-3-3-3-3-3-3-3-3-3-3-3-3-----|
D|---------------------------------------------------------------------|

Rhythm:
E|---------------------------------------------------------------------|
B|---------------------------------------------------------------------|
G|---------------------------------------------------------------------|
D|-7-7-7-7-7-7-7-7-5-5-5-5-5-5-5-5-3-3-3-3-3-3-3-3-3-3-3-3-3-3-3-3-----|
A|-7-7-7-7-7-7-7-7-5-5-5-5-5-5-5-5-3-3-3-3-3-3-3-3-3-3-3-3-3-3-3-3-----|
D|-7-7-7-7-7-7-7-7-5-5-5-5-5-5-5-5-3-3-3-3-3-3-3-3-3-3-3-3-3-3-3-3-----|

Lead:
E|---------------------------------------------------------------------|
B|---------------------------------------------------------------------|
G|-9-------10------12------15------7-7-7-7-7-7-7-7-7-7-7-7-7-7-7-7-----|
D|-x-------x-------x-------x-------x-x-x-x-x-x-x-x-x-x-x-x-x-x-x-x-----|
A|-7-------8-------10------13------5-5-5-5-5-5-5-5-5-5-5-5-5-5-5-5-----|
D|---------------------------------------------------------------------|

Rhythm:
E|---------------------------------------------------------------------|
B|---------------------------------------------------------------------|
G|---------------------------------------------------------------------|
D|-0-0-0-0-0-0-0-0-0-0-0-0-0-0-0-0-3-3-3-3-3-3-3-3-3-3-3-3-3-3-3-3-----|
A|-0-0-0-0-0-0-0-0-0-0-0-0-0-0-0-0-3-3-3-3-3-3-3-3-3-3-3-3-3-3-3-3-----|
D|-0-0-0-0-0-0-0-0-0-0-0-0-0-0-0-0-3-3-3-3-3-3-3-3-3-3-3-3-3-3-3-3-----|

Lead:
E|---------------------------------------------------------------------|
B|---------------------------------------------------------------------|
G|-9-9-9-9-9-9-9-9-7-7-7-7-7-7-7-7-5-5-5-5-5-5-5-5-5-5-5-5-5-5-5-5-----|
D|-x-x-x-x-x-x-x-x-x-x-x-x-x-x-x-x-x-x-x-x-x-x-x-x-x-x-x-x-x-x-x-x-----|
A|-7-7-7-7-7-7-7-7-5-5-5-5-5-5-5-5-3-3-3-3-3-3-3-3-3-3-3-3-3-3-3-3-----|
D|---------------------------------------------------------------------|

Rhythm:
E|---------------------------------------------------------------------|
B|---------------------------------------------------------------------|
G|---------------------------------------------------------------------|
D|-7-7-7-7-7-7-7-7-5-5-5-5-5-5-5-5-3-3-3-3-3-3-3-3-3-3-3-3-3-3-3-3-----|
A|-7-7-7-7-7-7-7-7-5-5-5-5-5-5-5-5-3-3-3-3-3-3-3-3-3-3-3-3-3-3-3-3-----|
D|-7-7-7-7-7-7-7-7-5-5-5-5-5-5-5-5-3-3-3-3-3-3-3-3-3-3-3-3-3-3-3-3-----|

---Interlude 1---

Lead/Rhythm:
E|---------------------------------------------------------------------|
B|---------------------------------------------------------------------|
G|---------------------------------------------------------------------|
D|-7---7---7---7-----5-5---5---5---3---3---3---3---3---3---3-----------|
A|-7---7---7---7-----5-5---5---5---3---3---3---3---3---3---3-----------|
D|-7---7---7---7-----5-5---5---5---3---3---3---3---3---3---3-----------|

---Solo-y bit---

Lead:
E|---------------------------------------------------------------------|
B|----------------------------17---------------------------------------|
G|-16-17-16-14---16-17-16-14------16-17-16-14---16-17-16-14------------|
D|---------------------------------------------------------------------|
A|---------------------------------------------------------------------|
D|---------------------------------------------------------------------|

E|---------------15----------------------------------------------------|
B|----------------------------------------------17---------------------|
G|-17-16-14-12------17-16-14-12---16-17-16-14------17-14-16-17---------|
D|---------------------------------------------------------------------|
A|---------------------------------------------------------------------|
D|---------------------------------------------------------------------|

E|----------------------------------------------------------15b--------|
B|----------------------------17---------------------------------------|
G|-16-17-16-14---16-17-16-14------16-17-16-14---16-17-16-14------------|
D|---------------------------------------------------------------------|
A|---------------------------------------------------------------------|
D|---------------------------------------------------------------------|

E|---------------15----------------------------------------------------|
B|--------------------------------------------------------17-----------|
G|-17-16-14-12------17-16-14-12---16-17-14-17-16-17-16-14----16-17-16--|
D|---------------------------------------------------------------------|
A|---------------------------------------------------------------------|
D|---------------------------------------------------------------------|

Rhythm:
E|---------------------------------------------------------------------|
B|---------------------------------------------------------------------|
G|---------------------------------------------------------------------|
D|-7-7-7-7---7-7-7-7---7---7-7-7-7---7-7-7-7---7-----------------------|
A|-7-7-7-7---7-7-7-7---7---7-7-7-7---7-7-7-7---7-----------------------|
D|-7-7-7-7---7-7-7-7---7---7-7-7-7---7-7-7-7---7-----------------------|

E|---------------------------------------------------------------------|
B|---------------------------------------------------------------------|
G|-9-9-109---9-9-109---9---9-9-109---9-9-109---9-----------------------|
D|-9-9-109---9-9-109---9---9-9-109---9-9-109---9-----------------------|
A|-7-7-8-7---7-7-8-7---7---7-7-8-7---7-7-8-7---7-----------------------|
D|---------------------------------------------------------------------|

E|---------------------------------------------------------------------|
B|---------------------------------------------------------------------|
G|---------------------------------------------------------------------|
D|-7-7-7-7---7-7-7-7---7---7-7-7-7---7-7-7-7---7-----------------------|
A|-7-7-7-7---7-7-7-7---7---7-7-7-7---7-7-7-7---7-----------------------|
D|-7-7-7-7---7-7-7-7---7---7-7-7-7---7-7-7-7---7-----------------------|

E|---------------------------------------------------------------------|
B|---------------------------------------------------------------------|
G|-9-9-109---9-9-109---9---9-9-109-9-109-9-109-9-10--------------------|
D|-9-9-109---9-9-109---9---9-9-109-9-109-9-109-9-10--------------------|
A|-7-7-8-7---7-7-8-7---7---7-7-8-7-7-8-7-7-8-7-7-8---------------------|
D|---------------------------------------------------------------------|

---Interlude 2---

Lead/Rhythm:
E|---------------------------------------------------------------------|
B|---------------------------------------------------------------------|
G|---------------------------------------------------------------------|
D|-7-7-7-7-7-7-7-7-7-7-7-7-7-7-7-7-3-3-3-3-3-3-3-3-3-3-3-3-3-3-3-3-----|
A|-7-7-7-7-7-7-7-7-7-7-7-7-7-7-7-7-3-3-3-3-3-3-3-3-3-3-3-3-3-3-3-3-----|
D|-7-7-7-7-7-7-7-7-7-7-7-7-7-7-7-7-3-3-3-3-3-3-3-3-3-3-3-3-3-3-3-3-----|
   . . . . . . . . . . . . . . . . . . . . . . . . . . . . . . . .

Lead/Rhythm:
E|---------------------------------------------------------------------|
B|---------------------------------------------------------------------|
G|-5-5-5-5-5-5-5-5-5-5-5-5-5-5-5-5-------------------------------------|
D|-5-5-5-5-5-5-5-5-5-5-5-5-5-5-5-5-5-5-5-5-5-5-5-5-5-5-5-5-5-5-5-5-----|
A|-3-3-3-3-3-3-3-3-3-3-3-3-3-3-3-3-5-5-5-5-5-5-5-5-5-5-5-5-5-5-5-5-----|
D|---------------------------------5-5-5-5-5-5-5-5-5-5-5-5-5-5-5-5-----|
   . . . . . . . . . . . . . . . . . . . . . . . . . . . . . . . .

Lead/Rhythm:
E|---------------------------------------------------------------------|
B|---------------------------------------------------------------------|
G|---------------------------------------------------------------------|
D|-7-7-7-7-7-7-7-7-7-7-7-7-7-7-7-7-3-3-3-3-3-3-3-3-3-3-3-3-3-3-3-3-----|
A|-7-7-7-7-7-7-7-7-7-7-7-7-7-7-7-7-3-3-3-3-3-3-3-3-3-3-3-3-3-3-3-3-----|
D|-7-7-7-7-7-7-7-7-7-7-7-7-7-7-7-7-3-3-3-3-3-3-3-3-3-3-3-3-3-3-3-3-----|
   . . . . . . . . . . . . . . . . . . . . . . . . . . . . . . . .

Lead:
E|---------------------------------------------------------------------|
B|---------------------------------10~-----12~-----13~-----------------|
G|-5-5-5-5-5-5-5-5-5-5-5-5-5-5-5-5-------------------------------------|
D|-5-5-5-5-5-5-5-5-5-5-5-5-5-5-5-5-------------------------------------|
A|-3-3-3-3-3-3-3-3-3-3-3-3-3-3-3-3-------------------------------------|
D|---------------------------------------------------------------------|
   . . . . . . . . . . . . . . . .

Rhythm:
E|---------------------------------------------------------------------|
B|---------------------------------------------------------------------|
G|-5-5-5-5-5-5-5-5-5-5-5-5-5-5-5-5-------------------------------------|
D|-5-5-5-5-5-5-5-5-5-5-5-5-5-5-5-5-5-5-5-5-5-5-5-5-5-5-5-5-5-5-5-5-----|
A|-3-3-3-3-3-3-3-3-3-3-3-3-3-3-3-3-5-5-5-5-5-5-5-5-5-5-5-5-5-5-5-5-----|
D|---------------------------------5-5-5-5-5-5-5-5-5-5-5-5-5-5-5-5-----|
   . . . . . . . . . . . . . . . . . . . . . . . . . . . . . . . .

---Outro---

Lead:
E|---------------------------------------------------------------------|-|
B|---------------------------------------------------------------------| |
G|-5-5-5-5-5-5-5-5-5-5-5-5-5-5-5-5-7-7-7-7-7-7-7-7-7-7-7-7-7-7-7-7-----| |
D|-x-x-x-x-x-x-x-x-x-x-x-x-x-x-x-x-x-x-x-x-x-x-x-x-x-x-x-x-x-x-x-x-----| |
A|-3-3-3-3-3-3-3-3-3-3-3-3-3-3-3-3-5-5-5-5-5-5-5-5-5-5-5-5-5-5-5-5-----| |
D|---------------------------------------------------------------------| |
                                                                       | X2
E|---------------------------------------------------------------------| |
B|---------------------------------------------------------------------| |
G|-9-9-9-9-9-9-9-9-9-9-9-9-101010107-7-7-7-7-7-7-7-7-7-7-7-9-9-9-9-----| |
D|-x-x-x-x-x-x-x-x-x-x-x-x-x-x-x-x-x-x-x-x-x-x-x-x-x-x-x-x-x-x-x-x-----| |
A|-7-7-7-7-7-7-7-7-7-7-7-7-8-8-8-8-5-5-5-5-5-5-5-5-5-5-5-5-7-7-7-7-----| |
D|---------------------------------------------------------------------|-|

Rhythm:
E|---------------------------------------------------------------------|-|
B|---------------------------------------------------------------------| |
G|---------------------------------------------------------------------| |
D|-7-7-7-7-7-7-7-7-7-7-7-7-7-7-7-7-3-3-3-3-3-3-3-3-3-3-3-3-3-3-3-3-----| |
A|-7-7-7-7-7-7-7-7-7-7-7-7-7-7-7-7-3-3-3-3-3-3-3-3-3-3-3-3-3-3-3-3-----| |
D|-7-7-7-7-7-7-7-7-7-7-7-7-7-7-7-7-3-3-3-3-3-3-3-3-3-3-3-3-3-3-3-3-----| |
                                                                       | X2
E|---------------------------------------------------------------------| |
B|---------------------------------------------------------------------| |
G|-5-5-5-5-5-5-5-5-5-5-5-5-5-5-5-5-------------------------------------| |
D|-5-5-5-5-5-5-5-5-5-5-5-5-5-5-5-5-5-5-5-5-5-5-5-5-5-5-5-5-5-5-5-5-----| |
A|-3-3-3-3-3-3-3-3-3-3-3-3-3-3-3-3-5-5-5-5-5-5-5-5-5-5-5-5-5-5-5-5-----| |
D|---------------------------------5-5-5-5-5-5-5-5-5-5-5-5-5-5-5-5-----|-|

Lead:
E|--------------------------------|------------------------------------|-|
B|--------------------------------|------------------------------------| |
G|-5-5-5-5-5-5-5-5-5-5-5-5-5/7-7-7|5-5-5-5-5-5-5-5-5-5-5-5-5\4-4-4-----| |
D|-x-x-x-x-x-x-x-x-x-x-x-x-x/x-x-x|x-x-x-x-x-x-x-x-x-x-x-x-x\x-x-x-----| |
A|-3-3-3-3-3-3-3-3-3-3-3-3-3/5-5-5|5-5-5-5-5-5-5-5-5-5-5-5-5\2-2-2-----| |
D|--------------------------------|------------------------------------| |
          16 Chords here             16 Chords here                    | X2
E|--------------------------------|------------------------------------| |
B|--------------------------------|------------------------------------| |
G|-5-5-5-5-7-7-7-7-9-9-9-9-5-5-5-5|4-4-4-4-4-4-4-4-4-4-4-4-4-4-4-4-----| |
D|-x-x-x-x-x-x-x-x-x-x-x-x-x-x-x-x|x-x-x-x-x-x-x-x-x-x-x-x-x-x-x-x-----| |
A|-3-3-3-3-5-5-5-5-7-7-7-7-3-3-3-3|2-2-2-2-2-2-2-2-2-2-2-2-2-2-2-2-----| |
D|--------------------------------|------------------------------------|-|
          16 Chords here             16 Chords here
Rhythm:
E|---------------------------------------------------------------------|-|
B|---------------------------------------------------------------------| |
G|---------------------------------------------------------------------| |
D|-7-7-7-7-7-7-7-7-7-7-7-7-7-7-7-7-3-3-3-3-3-3-3-3-3-3-3-3-3-3-3-3-----| |
A|-7-7-7-7-7-7-7-7-7-7-7-7-7-7-7-7-3-3-3-3-3-3-3-3-3-3-3-3-3-3-3-3-----| |
D|-7-7-7-7-7-7-7-7-7-7-7-7-7-7-7-7-3-3-3-3-3-3-3-3-3-3-3-3-3-3-3-3-----| |
                                                                       | X2
E|---------------------------------------------------------------------| |
B|---------------------------------------------------------------------| |
G|-5-5-5-5-5-5-5-5-5-5-5-5-5-5-5-5-------------------------------------| |
D|-5-5-5-5-5-5-5-5-5-5-5-5-5-5-5-5-5-5-5-5-5-5-5-5-5-5-5-5-5-5-5-5-----| |
A|-3-3-3-3-3-3-3-3-3-3-3-3-3-3-3-3-5-5-5-5-5-5-5-5-5-5-5-5-5-5-5-5-----| |
D|---------------------------------5-5-5-5-5-5-5-5-5-5-5-5-5-5-5-5-----|-|

---End on---

Lead:
E|---------------------------------------------------------------------|
B|---------------------------------------------------------------------|
G|-5-------------------------------------------------------------------|
D|-x-------------------------------------------------------------------|
A|-3-------------------------------------------------------------------|
D|---------------------------------------------------------------------|

Rhythm:
E|---------------------------------------------------------------------|
B|---------------------------------------------------------------------|
G|---------------------------------------------------------------------|
D|-7-------------------------------------------------------------------|
A|-7-------------------------------------------------------------------|
D|-7-------------------------------------------------------------------|

Thatís the whole song, it is a long one I know (thatís what she said), so sorry to all
of those who print tabs out, but if I had of made it shorter then I would have missed out
a lot of things, all the verses/interludes are different. But my email is at the top, 
again, any suggestions, corrections and (hopefully not) complaints, just email or comment
and Iíll see what I can do.
Tap to rate this tab
# A B C D E F G H I J K L M N O P Q R S T U V W X Y Z