Song name
# A B C D E F G H I J K L M N O P Q R S T U V W X Y Z

Senses Fail - Vines tab

This is my first tab please let me know if anythings wrong. I know the ending isn't 
exactly right but it sounds fine. Thanks!
--12-12-12-------------------------------------------12-12-12--|
-----------12-12-12-10-10-10-------10-10-10-12-12-12-----------|
-----------------------------9-9-9-----------------------------|
---------------------------------------------------------------|
---------------------------------------------------------------|
---------------------------------------------------------------|


------------------------------------12-12-12-----------------------|
12-12-12-14-14-14-10-10-10-14h15p14----------12-12-12-10-10-10-----|
-------------------------------------------------------------------|
-------------------------------------------------------------------|
-------------------------------------------------------------------|
-------------------------------------------------------------------|

-----------------------------------------------------|
-------10-10-10-12-12-12-14p12h14-12p10h12-----------|
9-9-9--------------------------------------10---10~--|
----------------------------------------------9------|
---------------- ------------------------------------|
-----------------------------------------------------|
Tap to rate this tab
# A B C D E F G H I J K L M N O P Q R S T U V W X Y Z