Song name
# A B C D E F G H I J K L M N O P Q R S T U V W X Y Z

Senses Fail - One Eight Seven tab

This is a great song. There is a few of different versions of this song and this is mine. Enjoy!


   Intro  (2x) Then continue to play (12x) for the verse
E|---------0---------------0---------------0---------------0----------|
B|-----3-----3---3-----3-----3---------3-----3---3-----3-----3---3----|
G|-2-2---2-----2---4-4---4-----2h4-0-0---0-----0---0-0---0-----0------|
D|--------------------------------------------------------------------|
A|--------------------------------------------------------------------|
D|--------------------------------------------------------------------|

Guitar 2

E|-12--12--12--12---10--10--10--9h10--9--9--9--9--9--9--9--9------|
B|---10--10--10--10---10--10--10-------10-10-10-10-10-10-10-10----|
G|----------------------------------------------------------------|
D|----------------------------------------------------------------|
A|----------------------------------------------------------------|
D|----------------------------------------------------------------|

Guitars 1&2  Verse

E|-----------------------------------|
B|-----------------------------------|
G|-----------------------------------|
D|-000000099999997h95555555 555 555--|
A|-000000099999997h95555555 555 555--|
D|-000000099999997h95555555 555 555--|
   ............... ........ ... ...

Chorus Repeat

E|---------------------------------------------------------------------|
B|---------------------------------------------------------------------|
G|-{      play about 16x each       }7777/9999/11-11-11-11/12-12-12-12-|
D|--99999999999999995555555555555555-xxxx/xxxx/-x--x--x--x/-x--x--x--x-|
A|--99999999999999995555555555555555-5555/7777/-9--9--9--9/10-10-10-10-|
D|--99999999999999995555555555555555-----------------------------------|

Chorus continued

E|--------------------------------------------------------------|
B|----------------(These are 11's)(Listen close)----------------|
G|-6666/7777/6666-1111111111111111111111111111111166666/77777---|
D|-xxxx/xxxx/xxxx--x-x-x-x-x-x-x-x-x-x-x-x-x-x-x-xxxxxx/xxxxx---|
A|-4444/5555/4444--9-9-9-9-9-9-9-9-9-9-9-9-9-9-9-944444/55555---|
D|--------------------------------------------------------------|

Chorus continued

E|--------------------------------------------------|
B|--------------------------------------------------|
G|-7777/9999/11-11-11-11/12-12-12-12/6666/7777/6666-|
D|-xxxx/xxxx/-x--x--x--x/-x--x--x--x/xxxx/xxxx/xxxx-|
A|-5555/7777/-9--9--9--9/10-10-10-10/4444/5555/4444-|
D|--------------------------------------------------|

Play this once

E|---------0---------------0---------------0---------------0----------|
B|-----3-----3---3-----3-----3---------3-----3---3-----3-----3---3----|
G|-2-2---2-----2---4-4---4-----2h4-0-0---0-----0---0-0---0-----0------|
D|--------------------------------------------------------------------|
A|--------------------------------------------------------------------|
D|--------------------------------------------------------------------|

Play this once

E|---------------|
B|---------------|
G|---------------|
D|-00000009999h7-|
A|-00000009999h7-|
D|-00000009999h7-|

Play this three times

E|-----------------------------------|
B|-----------------------------------|
G|-----------------------------------|
D|-000000099999997h95555555 555 555--|
A|-000000099999997h95555555 555 555--|
D|-000000099999997h95555555 555 555--|
   ............... ........ ... ...

Play this once

E|---------------------------------------------------------------------|
B|---------------------------------------------------------------------|
G|-{      play about 16x each       }7777/9999/11-11-11-11/12-12-12-12-|
D|--99999999999999995555555555555555-xxxx/xxxx/-x--x--x--x/-x--x--x--x-|
A|--99999999999999995555555555555555-5555/7777/-9--9--9--9/10-10-10-10-|
D|--99999999999999995555555555555555-----------------------------------|

Chorus continued

E|--------------------------------------------------------------|
B|----------------(These are 11's)(Listen close)----------------|
G|-6666/7777/6666-1111111111111111111111111111111166666/77777---|
D|-xxxx/xxxx/xxxx--x-x-x-x-x-x-x-x-x-x-x-x-x-x-x-xxxxxx/xxxxx---|
A|-4444/5555/4444--9-9-9-9-9-9-9-9-9-9-9-9-9-9-9-944444/55555---|
D|--------------------------------------------------------------|

Chorus continued

E|--------------------------------------------------|
B|--------------------------------------------------|
G|-7777/9999/11-11-11-11/12-12-12-12/6666/7777/6666-|
D|-xxxx/xxxx/-x--x--x--x/-x--x--x--x/xxxx/xxxx/xxxx-|
A|-5555/7777/-9--9--9--9/10-10-10-10/4444/5555/4444-|
D|--------------------------------------------------|

Play this once

E|------------------|
B|------------------|
G|------------------|
D|-000000000000-0-0-|
A|-000000000000-0-0-|
D|-000000000000-0-0-|

Play this twice

E|---------------------------------------------------------------------|
B|---------------------------------------------------------------------|
G|-{      play about 16x each       }7777/9999/11-11-11-11/12-12-12-12-|
D|--99999999999999995555555555555555-xxxx/xxxx/-x--x--x--x/-x--x--x--x-|
A|--99999999999999995555555555555555-5555/7777/-9--9--9--9/10-10-10-10-|
D|--99999999999999995555555555555555-----------------------------------|

Chorus continued

E|--------------------------------------------------------------|
B|----------------(These are 11's)(Listen close)----------------|
G|-6666/7777/6666-1111111111111111111111111111111166666/77777---|
D|-xxxx/xxxx/xxxx--x-x-x-x-x-x-x-x-x-x-x-x-x-x-x-xxxxxx/xxxxx---|
A|-4444/5555/4444--9-9-9-9-9-9-9-9-9-9-9-9-9-9-9-944444/55555---|
D|--------------------------------------------------------------|

Chorus continued

E|--------------------------------------------------|
B|--------------------------------------------------|
G|-7777/9999/11-11-11-11/12-12-12-12/6666/7777/6666-|
D|-xxxx/xxxx/-x--x--x--x/-x--x--x--x/xxxx/xxxx/xxxx-|
A|-5555/7777/-9--9--9--9/10-10-10-10/4444/5555/4444-|
D|--------------------------------------------------|

Play this four times

E|----------------------------------------------|
B|----------------------------------------------|
G|-1414141414141414/12121212/11111111/9999/7777-|
D|--x-x-x-x-x-x-x-x/-x-x-x-x/-x-x-x-x/xxxx/xxxx-|
A|-1212121212121212/10101010/-9-9-9-9/7777/5555-|
D|----------------------------------------------|

Ending play four times then hit the first part once to end.

E|-------------------------   ----|
B|-------------------------   ----|
G|-11111111/12121212-------   -11-|
D|--x-x-x-x/-x-x-x-x-------   --x-|   this is the part you play to end.
A|--9-9-9-9/10101010-------   --9-|
D|-------------------------   ----|


I am not to sure about how to label the song so if you can send it to me. Ill have the rest of it soon.
Tap to rate this tab
# A B C D E F G H I J K L M N O P Q R S T U V W X Y Z