Song name
# A B C D E F G H I J K L M N O P Q R S T U V W X Y Z

Senses Fail - Dreaming A Reality tab

   -----------------------------------------------------------------------
                      SENSES FAIL - DREAMING A REALITY
   -----------------------------------------------------------------------

Band: Senses fail
Song Dreaming a reality
Album: From the depths of dreams
Tabber: Darcy Baylis
email: escape_artists_never_die17@hotmail.com


Hello! I have known how to play this song for ages so i thought,"why dont I tab it!"
So here it is, the COMPLETE version of the song. Its not that hard to play. The only
it bit is when you have to make a quick change from the chords to a hammer-on on the top
but dont worry, you can get it with practise. And please, if it isnt a great tab, im 
11 so thats probably why. But i dont think you will find any mistakes with it. :)

 ===========================================================================
                              Guitar 1
Intro: (clean)
e--------------------------------------------------------------|
b--------------------------------------------------------------|
g--------------------------------------------------------------|
d-----7-7-7-6-6-6--------------------7-7-7-6-6-6---------------|
a---4-------------7-7-7-7-7-7-7----4-------------7-7-7-7-7-7-7-|
c-4------------------------------4-----------------------------|

e--------------------------------------------------------------|
b--------------------------------------------------------------|
g--------------------------------------------------------------|
d----7-7-7-6-6-6------------------7-7-7-6-6-6------------------|
a--0-------------7-7-7-7-7-7-7--0-------------7-7-7-7-7-7-7----|
c-0----------------------------0-------------------------------|

Verse: (Distortion)
e-------------------------------------------------|
b-------------------------------------------------|
g-------------------------------------------------|
d-7-7-7-7-7-6-6-6----------7-7-7-7-6-6-6----------|
a-4-4-4-4-4-4-4-4-7-7-7-x2-0-0-0-0-0-----7-7-7-x2-|
c-4-4-4-4-4-4-4-4-4-4-4----0-0-0-0-0-0-0-0-0-0----|

Pre-chorus: (really fast)
e---------|
b---------|
g-6h7p6---|
d-------7-|
a---------|
c---------|

Chorus: (distortion)
e--------------------------------------------------------------------------|
b--------------------------------------------------------------------------|
g--------------------------------------------------------------------------|
d-7-x16-2-x16-7-6-6-6-6-6-----7-6-6-6-6-6----7-6-6-6-6-6--7-6-6-6-6--------|
a-7-----2-----4-4-4-4-4-4--7--4-4-4-4-4-4--7-0-0-0-0-0---7-0-0-0-0-0-7-----|
c-7-----2-----4-4-4-4-4-4--4--4-4-4-4-4-4--4-0-0-0-0-0-0-0-0-0-0-0-0-0-0-0-|

Verse 2: (Distortion)
e-------------------------------------------------|
b-------------------------------------------------|
g-------------------------------------------------|
d-7-7-7-7-7-6-6-6----------7-7-7-7-6-6-6----------|
a-4-4-4-4-4-4-4-4-7-7-7-x2-0-0-0-0-0-----7-7-7-x2-|
c-4-4-4-4-4-4-4-4-4-4-4----0-0-0-0-0-0-0-0-0-0----|


Pre chorus: (Really fast)

e---------|
b---------|
g-6h7p6---|
d-------7-|
a---------|
c---------|


Chorus 2: (Distortion)

e--------------------------------------------------------------------------|
b--------------------------------------------------------------------------|
g--------------------------------------------------------------------------|
d-7-x16-2-x16-7-6-6-6-6-6-----7-6-6-6-6-6----7-6-6-6-6-6--7-6-6-6-6--------|
a-7-----2-----4-4-4-4-4-4--7--4-4-4-4-4-4--7-0-0-0-0-0---7-0-0-0-0-0-7-----|
c-7-----2-----4-4-4-4-4-4--4--4-4-4-4-4-4--4-0-0-0-0-0-0-0-0-0-0-0-0-0-0-0-|


Bridge : (x2)
e-------------------------------------------------------|
b-------------------------------------------------------|
g-------------------------------------------------------|
d-7-x-x-x-x-x-x-x-x-x-x-x-x-2-x-x-x-x-x-x-x-x-x-x-2-3-4-|
a-7-x-x-x-x-x-x-x-x-x-x-x-x-2-x-x-x-x-x-x-x-x-x-x-2-3-4-|
c-7-x-x-x-x-x-x-x-x-x-x-x-x-2-x-x-x-x-x-x-x-x-x-x-2-3-4-|

e-----------------------------------------|
b-----------------------------------------|
g-----------------------------------------|
d-7-6-6-6-6-6-------7-6-6-6-6-6-6---------|
a-4-4-4-4-4-4-7-7-7-4-4-4-4-4-4-4-7-7-7---|
c-4-4-4-4-4-4-4-4-4-4-4-4-4-4-4-4-4-4-4-4-|

e----------------------------------------------------|
b----------------------------------------------------|
g----------------------------------------------------|
d-0-0-0-7-6-6-6-6-6---------0-0-0-7-6-6-6-6-6--------|
a-0-0-0-0-0-0-0-0-0-7-7-7---0-0-0-0-0-0-0-0-0-7-7-7--|
c-0-0-0-0-0-0-0-0-0-0-0-0---0-0-0-0-0-0-0-0-0-0-0-0--|

Then a pickslide.
Then chorus twice.
Then end note is:
e--------|
b--------|
g--------|
d-0~~~~~-|
a-0~~~~~-|
c-0~~~~~-|

Now for guitar 2:

 ===========================================================================
                                  Guitar 2


It is silent while guitar 1 plays the intro.
Verse x4: (distorted)
e----------|
b----------|
g----------|
d-4--4-x18-|
a-4--4-----|
c-4--4-----|
     .

e----------|
b----------|
g----------|
d-0--0-----|
a-0--0-----|
c-0--0-----|
     .


Pre chorus (really fast)
e-6h7p6---|
b-------7-|
g---------|
d---------|
a---------|
c---------|

Chorus: (distortion)
e--------------------------------------------------------------------------|
b--------------------------------------------------------------------------|
g--------------------------------------------------------------------------|
d-7-x16-2-x16-7-6-6-6-6-6-----7-6-6-6-6-6----7-6-6-6-6-6--7-6-6-6-6--------|
a-7-----2-----4-4-4-4-4-4--7--4-4-4-4-4-4--7-0-0-0-0-0---7-0-0-0-0-0-7-----|
c-7-----2-----4-4-4-4-4-4--4--4-4-4-4-4-4--4-0-0-0-0-0-0-0-0-0-0-0-0-0-0-0-|

Verse 2 x4: (distorted)
e----------|
b----------|
g----------|
d-4--4-x18-|
a-4--4-----|
c-4--4-----|
     .

e----------|
b----------|
g----------|
d-0--0-----|
a-0--0-----|
c-0--0-----|
     .

Pre-chorus:
e-6h7p6---|
b-------7-|
g---------|
d---------|
a---------|
c---------|

Chorus 2:

e--------------------------------------------------------------------------|
b--------------------------------------------------------------------------|
g--------------------------------------------------------------------------|
d-7-x16-2-x16-7-6-6-6-6-6-----7-6-6-6-6-6----7-6-6-6-6-6--7-6-6-6-6--------|
a-7-----2-----4-4-4-4-4-4--7--4-4-4-4-4-4--7-0-0-0-0-0---7-0-0-0-0-0-7-----|
c-7-----2-----4-4-4-4-4-4--4--4-4-4-4-4-4--4-0-0-0-0-0-0-0-0-0-0-0-0-0-0-0-|

Bridge:


e-------------------------------------------------------|
b-------------------------------------------------------|
g-------------------------------------------------------|
d-7-x-x-x-x-x-x-x-x-x-x-x-x-2-x-x-x-x-x-x-x-x-x-x-2-3-4-|
a-7-x-x-x-x-x-x-x-x-x-x-x-x-2-x-x-x-x-x-x-x-x-x-x-2-3-4-|
c-7-x-x-x-x-x-x-x-x-x-x-x-x-2-x-x-x-x-x-x-x-x-x-x-2-3-4-|

e-----------------------------------------|
b-----------------------------------------|
g-----------------------------------------|
d-7-6-6-6-6-6-------7-6-6-6-6-6-6---------|
a-4-4-4-4-4-4-7-7-7-4-4-4-4-4-4-4-7-7-7---|
c-4-4-4-4-4-4-4-4-4-4-4-4-4-4-4-4-4-4-4-4-|

e----------------------------------------------------|
b----------------------------------------------------|
g----------------------------------------------------|
d-0-0-0-7-6-6-6-6-6---------0-0-0-7-6-6-6-6-6--------|
a-0-0-0-0-0-0-0-0-0-7-7-7---0-0-0-0-0-0-0-0-0-7-7-7--|
c-0-0-0-0-0-0-0-0-0-0-0-0---0-0-0-0-0-0-0-0-0-0-0-0--|

Then do a pickslide.
Then play the chorus twice.
And the end note is:
e--------|
b--------|
g--------|
d-0~~~~~-|
a-0~~~~~-|
c-0~~~~~-|
Tap to rate this tab
# A B C D E F G H I J K L M N O P Q R S T U V W X Y Z