Song name
# A B C D E F G H I J K L M N O P Q R S T U V W X Y Z

Senses Fail - Bite To Break Skin tab

Band:Senses Fail
Song:Bite To Break Skin
Album:Let It Enfold You
Tuning: Drop D


Senses Fail rocks!!, this is one of mi fav songs by them, it sounds good to me so be 
and rate it. Im a 12 yr old kid that loves guitar :D. Alright chek out mi tab... later

Tabbed by: Fernando M. (Atticus_182)


Intro: Guitar 1(0:00-0:21)

e -------8-------8----8--------------------|
B -5h65h6--5h65h6--5h6---------------------|
G -----------------------------------------|
D -----------------------------------------|
A -----------------------------------------|
D -----------------------------------------|

Guitar 2 (0:04-0:21) X2

e -----------------------------------------|
B -----------------------------------------|
G -----------------------------------------|
D -----------------------------------------|
A -0~--8~--7~--8~--------------------------|
D -0~--8~--7~--8~--------------------------|

Guitar 1(0:22-0:38) X2

e -----------------------------------------88----88--8-----88-----88---8-|
B -556688-556688-568-335566-335566-356-5566--5566--56---5566---5566--56--|
G -----------------------------------------------------------------------|
D -----------------------------------------------------------------------|
A -----------------------------------------------------------------------|
D -----------------------------------------------------------------------|

Guitar 2 (0:22-38)  X2

e -----------------------------------------------------------------------|
B -----------------------------------------------------------------------|
G -----------------------------------------------------------------------|
D -----------------------------------------------------------------------|
A -00000000-00000000-88888888-8888888-77777777-7777777-88888888-8888888--|
D -00000000-00000000-88888888-8888888-77777777-7777777-88888888-8888888--|

Verse: Guitar 1 & 2 (0:39-1:13)

e -----------------------------------------------------------------------|
B -----------------------------------------------------------------------|
G -----------------------------------------------------------------------|
D -----------------------------------------------------------------------|
A -0~--88--0~--88----8888--7777-8888-88888888---8888-7777-8888-8888-8888-|
D -0~--88--0~--88----8888--7777-8888-88888888---8888-7777-8888-8888-8888-|
       ..      ..    ....  .... .... ........   .... .... .... .... ....

(So let me take this medicine ...)

Pre Chorus (1:13-1:21)

e -------------------------------------------------------------------------|
B -------------------------------------------------------------------------|
G -------------------------------------------------------------------------|
D -------------------------------------------------------------------------|
A 77777777-7777777-8888888-88888888-7777777-7777777-88888888-10-xxxxxxxx---|
D 77777777-7777777-8888888-88888888-7777777-7777777-88888888-10-xxxxxxxx---|

(Do You see the Life I lead...)

Chorus: (1:22-1:38)

Guitar 1:X2

e -----------------------------------------88----88--8-----88-----88---8-|
B -556688-556688-568-335566-335566-356-5566--5566--56---5566---5566--56--|
G -----------------------------------------------------------------------|
D -----------------------------------------------------------------------|
A -----------------------------------------------------------------------|
D -----------------------------------------------------------------------|
(Follow me into the sun, i know what i need...)

Guitar 2:X2

e -----------------------------------------------------------------------|
B -----------------------------------------------------------------------|
G -----------------------------------------------------------------------|
D -----------------------------------------------------------------------|
A -00000000-00000000-88888888-8888888-77777777-7777777-88888888-8888888--|
D -00000000-00000000-88888888-8888888-77777777-7777777-88888888-8888888--|


Bridge:(2:30-2:57)

Guitar 1

e -55555555-55555555---------------------------------------------------|
B ------------------66666666-6666666-----------------66666666-5555555--|
G ----------------------------------55555555-5555555-------------------|
D ---------------------------------------------------------------------|
A ---------------------------------------------------------------------|
D ---------------------------------------------------------------------|
(For you...)
Guitar 2 (2:21-2:57)

e -----------------------------------------------------------------------|
B -----------------------------------------------------------------------|
G -----------------------------------------------------------------------|
D -----------------------------------------------------------------------|
A -00000000-00000000-88888888-8888888-77777777-7777777-88888888-8888888--|
D -00000000-00000000-88888888-8888888-77777777-7777777-88888888-8888888--|
(For you)
-----------------------------P.M-----------------------------------------

Outro:(2:56-3:34)

Guitar 1   X2

e -----8-----10-8----8----10-8----8---10-8---8--565865------|
B -565---565------565--565-----565-565----565---------------|
G ----------------------------------------------------------|
D ----------------------------------------------------------|
A ----------------------------------------------------------|
D ----------------------------------------------------------|
(Bite to break skin, dont keep the secret...)

Guitar 2 (2:56-3:34) X2

e ------------------------------------------------------------------------|
B ------------------------------------------------------------------------|
G ------------------------------------------------------------------------|
D ------------------------------------------------------------------------|
A 000--8~--000-10-8---000-8~--000-10-8---000-8~--000-10-8--000-8--7871087-|
D 000--8~--000-10-8---000-8~--000-10-8---000-8~--000-10-8--000-8--7871087-|
Tap to rate this tab
# A B C D E F G H I J K L M N O P Q R S T U V W X Y Z