Song name
# A B C D E F G H I J K L M N O P Q R S T U V W X Y Z

Senses Fail - Handguns And Second Chances tab

Senses Fail- "Handguns and Second Chances"
From the Depths of Dreams



Intro Part One-


Guitar 1:  (Garrett)

|---------------------------------------------------------------------------|
|--4-----4--------------------4-----4---4x4x--------------------------------|
|--5-----5--------------------5-----5---5x5x--------------------------------|
|--3-----6--------------------3-----6---6x6x--------------------------------|
|---------------------------------------------------------------------------|
|---------------------------------------------------------------------------|

Guitar 2:  (Dave)

|---------------------------------------------------------------------------|
|---------------------------------------------------------------------------|
|---------------------------------------------------------------------------|
|--3-----11-------------------3-----11---11x11x-----------------------------|
|--3-----11-------------------3-----11---11x11x-----------------------------|
|--3-----11-------------------3-----11---11x11x-----------------------------|


Intro Part Two-


Guitar 1:

|---------------------------------------------------------------------------|
|--4-----4------------------------------------------------------------------|
|--5-----5------(Strum according to song, crazy strumming)------------------|
|--3-----6------------------------------------------------------------------|
|---------------------------------------------------------------------------|
|---------------------------------------------------------------------------|

Guitar 2:

|---------------------------------------------------------------------------|
|---------------------------------------------------------------------------|
|---------------------------------------------------------------------------|
|--3-----11-----------------------------------------------------------------|
|--3-----11------(Strum according to song, crazy strumming)-----------------|
|--3-----11-----------------------------------------------------------------|


Verse Part 1:  (Palm muted)

Both Guitars:

|---------------------------------------------------------------------------|
|---------------------------------------------------------------------------|
|---------------------------------------------------------------------------|
|--3-3----11-11---6-6---1-1---3-3----11-11---6-6---1-1----------------------|
|--3-3----11-11---6-6---1-1---3-3----11-11---6-6---1-1----------------------|
|--3-3----11-11---6-6---1-1---3-3----11-11---6-6---1-1----------------------|

Verse Part 2-

**Guitar 2 does Verse Part 1 again

Guitar 1:  

|---------------------------------------------------------------------------|
|----xx4-4----xx4---xx4---xx4-----------------------------------------------|
|----xx5-5----xx5---xx5---xx5--------------(x2)-----------------------------|
|----xx3-3----xx6---xx6---xx6-----------------------------------------------|
|---------------------------------------------------------------------------|
|---------------------------------------------------------------------------|


Chorus-

Guitar 1:

|--4-3---4-3----6/3--------------6-4-3-6-4-3--3/4/3-------------------------|
|------4-----4-------(x3, then)---------------------------------------------|
|--------------------------------------------------------(x2)---------------|
|---------------------------------------------------------------------------|
|---------------------------------------------------------------------------|
|---------------------------------------------------------------------------|

Guitar 2:

|---------------------------------------------------------------------------|
|---------------------------------------------------------------------------|
|---------------------------------------------------------------------------|
|--3---6---11---6---1-------------------------------------------------------|
|--3---6---11---6---1------(x2, strum each according to song)---------------|
|--3---6---11---6---1-------------------------------------------------------|


**Play Verses Part 1 & 2 again
**Play Chorus again


Bridge Part 1-

Guitar 1:

|---------------------------------------------------------------------------|
|---------------------------------------------------------------------------|
|------------------------8-6-5--8-6-5----8-10-12----------------------------|
|--3---6---11---6--1---------------------x--x--x----------------------------|
|--3---6---11---6--1---------------------6--8-10----------------------------|
|--3---6---11---6--1--------------------------------------------------------|

Guitar 2:

|---------------------------------------------------------------------------|
|---------------------------------------------------------------------------|
|---------------------------------------------------------------------------|
|--3---6---11---6--1-----3---6---11---6--1----------------------------------|
|--3---6---11---6--1-----3---6---11---6--1----------------------------------|
|--3---6---11---6--1-----3---6---11---6--1----------------------------------|


Bridge Part 2-

Guitar 1:

|--------------------------------------------------(all of this x3)---------|
|---------------------------------------------------------------------------|
|--12/13-13-13-13--13-13--13-13--13-12/13-13-13-------17---------15---------|
|---x/-x--x--x--x---x--x---x--x---x--x/-x--x--x--(x3)--x-(strum)--x-(strum)-|
|--10/11-11-11-11--11-11--11-11--11-10/11-11-11-------15---------13---------|
|---------------------------------------------------------------------------|

Guitar 2:

|---------------------------------------------------------------------------|
|-------------------------------(Strum according to song)-------------------|
|---------------------------------------------------------------------------|
|--3---6---11---6--1-----3---6---11---6--1-----3----------------------------|
|--3---6---11---6--1-----3---6---11---6--1-----3---(let fade)---------------|
|--3---6---11---6--1-----3---6---11---6--1-----3----------------------------|


**Play Chorus again

Guitar 1 end on:

|--4-4----------------------------------------------------------------------|
|---------------------------------------------------------------------------|
|---------------------------------------------------------------------------|
|---------------------------------------------------------------------------|
|---------------------------------------------------------------------------|
|---------------------------------------------------------------------------|

Guitar 2 end on:

|---------------------------------------------------------------------------|
|---------------------------------------------------------------------------|
|---------------------------------------------------------------------------|
|--3-3----------------------------------------------------------------------|
|--3-3----------------------------------------------------------------------|
|--3-3----------------------------------------------------------------------|


And there you go!
Tap to rate this tab
# A B C D E F G H I J K L M N O P Q R S T U V W X Y Z