Song name
# A B C D E F G H I J K L M N O P Q R S T U V W X Y Z

Senses Fail - Choke On This tab

Well, this is my first tab. I'm 16 years old, but I think it's pretty accurate. I 
figure out the lead in the bridge because in the song, you can barely hear it. I'm pretty sure 
the lead in the chorus.
(1) rhythm guitar
(2) lead guitar

~    let ring
.    palm mute
x    damp
>>>  pick scrape
h    hammer-on

Chorus/Intro

Rhythm Guitar (1)
|----------------|----------------|----------------|----------------|
|----------------|----------------|----------------|----------------|
|----------------|----------------|---------------6|--6-6-6-6-6-6-65|
|--------------88|--8-8-8-8-8-6-64|--4-4-4-4-4-4-46|--6-6-6-6-6-6-65|
|--------------88|--8-8-8-8-8-6-64|--4-4-4-4-4-4-44|--4-4-4-4-4-4-43|
|--------------88|--8-8-8-8-8-6-64|--4-4-4-4-4-4-4-|----------------|
Lead Guitar (2)
|----------------|----------------|----------------|----------------|
|----------------|----------------|----------------|----------------|
|----------------|----------------|---------------6|--6-6-6-6-6-6-65|
|--------------88|--8-8-8-8-8-6-64|--4-4-4-4-4-4-4x|--x-x-x-x-x-x-xx|
|--------------88|--8-8-8-8-8-6-64|--4-4-4-4-4-4-44|--4-4-4-4-4-4-43|
|--------------88|--8-8-8-8-8-6-64|--4-4-4-4-4-4-4-|----------------|

(1)
|----------------|----------------|----------------|----------------|
|----------------|----------------|----------------|----------------|
|--5-5-5-5-5-5-5-|----------------|----------------|6-6-5-5-6-6-5-5-|
|--5-5-5-5-5-5-5-|8-8-8-8-8-8-6-64|--4-4-4-4-4-44x-|6-6-5-5-6-6-5-5-|
|--3-3-3-3-3-3-3-|8-8-8-8-8-8-6-64|--4-4-4-4-4-44x-|4-4-3-3-4-4-3-3-|
|----------------|8-8-8-8-8-8-6-64|--4-4-4-4-4-44x-|----------------|
(2)
|----------------|----------------|----------------|----------------|
|----------------|9-9-9-9-9-9-9-97|--7-7-7-7-7-77x-|6-6-6-6-6-6-6-6-|
|--5-5-5-5-5-5-5-|----------------|----------------|----------------|
|--x-x-x-x-x-x-x-|----------------|----------------|----------------|
|--3-3-3-3-3-3-3-|----------------|----------------|----------------|
|----------------|----------------|----------------|----------------|

(1)
|----------------|
|----------------|
|6-6-5-5-6-6-5-5-|
|6-6-5-5-6-6-5-5-|
|4-4-3-3-4-4-3-3-|
|----------------|
(2)
|----------------|
|4-4-4-4-4-4-4-4-|
|----------------|
|----------------|
|----------------|
|----------------|

Pre-Verse

(1)
|----------------|
|----------------|
|6~--------------|
|6~--------------|
|4~--------------|
|----------------|
(2)
|----------------|
|9-9-9-6-6-6-----|
|----------------|
|------------>>>>|
|------------>>>>|
|------------>>>>|

Verse

(1)
|----------------|----------------|----------------|----------------|
|----------------|----------------|----------------|----------------|
|----------------|----------------|----------------|--------6-------|
|8-8-8-8-8-8-6-6-|4-4-4-4-4-4-4-4-|3-3-3-3-3-3-3-3-|4-4-4-4-4-4-4-4-|
|8-8-8-8-8-8-6-6-|4-4-4-4-4-4-4-4-|3-3-3-3-3-3-3-3-|4-4-4-4-4-4-4-4-|
|8-8-8-8-8-8-6-6-|4-4-4-4-4-4-4-4-|3-3-3-3-3-3-3-3-|4-4-4-4-4-4-4-4-|
 . . . . . . . .  . . . . . . . .  . . . . . . . .  . . . .   . . .
(2)
|----------------|----------------|----------------|----------------|
|----------------|----------------|----------------|----------------|
|----------------|----------------|----------------|----------------|
|8-8-8-8-8-8-6-6-|4-4-4-4-4-4-4-4-|3-3-3-3-3-3-3-3-|4-4-4-4-4-4-4-4-|
|8-8-8-8-8-8-6-6-|4-4-4-4-4-4-4-4-|3-3-3-3-3-3-3-3-|4-4-4-4-4-4-4-4-|
|8-8-8-8-8-8-6-6-|4-4-4-4-4-4-4-4-|3-3-3-3-3-3-3-3-|4-4-4-4-4-4-4-4-|
 . . . . . . . .  . . . . . . . .  . . . . . . . .  . . . . . . . .

(1)
|----------------|----------------|----------------|----------------|
|----------------|----------------|----------------|----------------|
|----------------|----------------|----------------|----------------|
|8-8-8-8-8-8-6-6-|4-4-4-4-4-4-4-4-|3-3-3-3-3-3-3-3-|4-4-4-4-4-4-4-4-|
|8-8-8-8-8-8-6-6-|4-4-4-4-4-4-4-4-|3-3-3-3-3-3-3-3-|4-4-4-4-4-4-4-4-|
|8-8-8-8-8-8-6-6-|4-4-4-4-4-4-4-4-|3-3-3-3-3-3-3-3-|4-4-4-4-4-4-4-4-|
 . . . . . . . .  . . . . . . . .  . . . . . . . .  . . . . .
(2)
|----------------|----------------|----------------|----------------|
|----------------|----------------|----------------|----------------|
|----------------|----------------|----------------|----------------|
|8-8-8-8-8-8-6-6-|4-4-4-4-4-4-4-4-|3-3-3-3-3-3-3-3-|4-4-4-4-4-4-4-4-|
|8-8-8-8-8-8-6-6-|4-4-4-4-4-4-4-4-|3-3-3-3-3-3-3-3-|4-4-4-4-4-4-4-4-|
|8-8-8-8-8-8-6-6-|4-4-4-4-4-4-4-4-|3-3-3-3-3-3-3-3-|4-4-4-4-4-4-4-4-|
 . . . . . . . .  . . . . . . . .  . . . . . . . .  . . . . . . . .


Pre-Chorus

(Both Guitars)
|----------------|----------------|----------------|----------------|
|----------------|----------------|----------------|----------------|
|----------------|----------------|----------------|----------------|
|3-3-3-3-3-3-3-38|--8-8-8-6-6-6-84|--4-4-4-4-4-4-48|--8-8-8-6-6-6-84|
|3-3-3-3-3-3-3-38|--8-8-8-6-6-6-84|--4-4-4-4-4-4-48|--8-8-8-6-6-6-84|
|3-3-3-3-3-3-3-38|--8-8-8-6-6-6-84|--4-4-4-4-4-4-48|--8-8-8-6-6-6-84|

|----------------|----------------|----------------|
|----------------|----------------|----------------|
|----------------|----------------|----------------|
|--4-4-4-4-4-4-48|--8-8-8-6-6-6-84|--4-4-4-6-6-6x88|
|--4-4-4-4-4-4-48|--8-8-8-6-6-6-84|--4-4-4-6-6-6x88|
|--4-4-4-4-4-4-48|--8-8-8-6-6-6-84|--4-4-4-6-6-6x88|

Chorus/Intro

(Same as Intro for rhythm guitar)

Lead (2)
|----------------|----------------|----------------|----------------|
|7-6---7-6---4h6-|7-6---7-6---4h6-|7-6---7-6---4h6-|7-6---7-6---4h6-|
|----6-----6-----|----6-----6-----|----6-----6-----|----6-----6-----|
|----------------|----------------|----------------|----------------|
|----------------|----------------|----------------|----------------|
|----------------|----------------|----------------|----------------|

|----------------|----------------|----------------|----------------|
|9-9-9-9-9-9-9-97|--7-7-7-7-7-77x-|6-6-6-6-6-6-6-6-|4-4-4-4-4-4-4-4-|
|6-6-6-6-6-6-6-66|--6-6-6-6-6-66x-|6-6-6-6-6-6-6-6-|6-6-6-6-6-6-6-6-|
|----------------|----------------|----------------|----------------|
|----------------|----------------|----------------|----------------|
|----------------|----------------|----------------|----------------|

Repeat Pre-Verse

Repeat Verse

Repeat Pre-Chorus

Repeat Chorus/Intro

Bridge

(1)
|----------------|----------------|----------------|----------------|
|----------------|----------------|----------------|----------------|
|6~--------------|----------------|5~--------------|----------------|
|6~--------------|----------------|5~--------------|----------------|
|4~--------------|----------------|3~--------------|----------------|
|----------------|----------------|----------------|----------------|
(2)
|----------------|----------------|----------------|----------------|
|----------------|----------------|----------------|----------------|
|----------------|----------------|----------------|----------------|
|6-6-6-6-6-6-6-6-|6-6-6-6-6-6-6-6-|5-5-5-5-5-5-5-5-|5-5-5-5-5-5-5-5-|
|4-4-4-4-4-4-4-4-|4-4-4-4-4-4-4-4-|3-3-3-3-3-3-3-3-|3-3-3-3-3-3-3-3-|
|----------------|----------------|----------------|----------------|
 . . . . . . . .  . . . . . . . .  . . . . . . . .  . . . . . . . .

(1)
|----------------|----------------|----------------|----------------|
|----------------|----------------|----------------|----------------|
|----------------|----------------|----------------|----------------|
|8~--------------|----------------|3~--------------|4~------6~------|
|8~--------------|----------------|3~--------------|4~------6~------|
|8~--------------|----------------|3~--------------|4~------6~------|
(2)
|----------------|----------------|----------------|----------------|
|----------------|----------------|----------------|----------------|
|----------------|----------------|----------------|----------------|
|----------------|----------------|----------------|----------------|
|8-8-8-8-8-8-8-8-|8-8-8-8-8-8-8-8-|3-3-3-3-3-3-3-3-|4-4-4-4-6-6-6-6-|
|8-8-8-8-8-8-8-8-|8-8-8-8-8-8-8-8-|3-3-3-3-3-3-3-3-|4-4-4-4-6-6-6-6-|
 . . . . . . . .  . . . . . . . .  . . . . . . . .  . . . . . . . .

(1)
|----------------|----------------|----------------|----------------|
|----------------|----------------|----------------|----------------|
|6-6-x-----------|----------------|5-5-x-----------|----------------|
|6-6-x-----------|----------------|5-5-x-----------|----------------|
|4-4-x-----------|----------------|3-3-x-----------|----------------|
|----------------|----------------|----------------|----------------|
(2)
|----------------|----------------|----------------|----------------|
|----------------|------6-----7~--|----------------|------6-----7~--|
|6---5h6-6---5---|8---5-----5-----|6---5h6-6---5---|8---5-----5-----|
|--6-------6---6-|--6-----6-------|--6-------6---6-|--6-----6-------|
|----------------|----------------|----------------|----------------|
|----------------|----------------|----------------|----------------|

(1)
|----------------|----------------|----------------|----------------|
|----------------|----------------|----------------|----------------|
|----------------|----------------|----------------|----------------|
|8-8-x-----------|----------------|3-3-x-----------|4-4-x---6-6-x---|
|8-8-x-----------|----------------|3-3-x-----------|4-4-x---6-6-x---|
|8-8-x-----------|----------------|3-3-x-----------|4-4-x---6-6-x---|
(2)
|----------------|----------------|----------------|----------------|
|----------------|------6-----7~--|----------------|------6---------|
|6---5h6-6---5---|8---5-----5-----|6---5h6-6---5---|8---5-----5-6---|
|--6-------6---6-|--6-----6-------|--6-------6---6-|--6-----6-----6-|
|----------------|----------------|----------------|----------------|
|----------------|----------------|----------------|----------------|

(1)
|----------------|----------------|----------------|----------------|
|----------------|----------------|----------------|----------------|
|6-6-x-----------|----------------|5-5-x-----------|----------------|
|6-6-x-----------|----------------|5-5-x-----------|----------------|
|4-4-x-----------|----------------|3-3-x-----------|----------------|
|----------------|----------------|----------------|----------------|
(2)
|----------------|----------------|----------------|----------------|
|----------------|------6-6-6-7-7-|----------------|------6-6-6-7-7-|
|6---5h6-6---5---|8---5-----------|6---5h6-6---5---|8---5-----------|
|--6-------6---6-|--6-------------|--6-------6---6-|--6-------------|
|----------------|----------------|----------------|----------------|
|----------------|----------------|----------------|----------------|

(1)
|----------------|----------------|----------------|----------------|
|----------------|----------------|----------------|----------------|
|----------------|----------------|----------------|----------------|
|8-8-x-----------|----------------|3-3-x-----------|4-4-x---6-6-x-88|
|8-8-x-----------|----------------|3-3-x-----------|4-4-x---6-6-x-88|
|8-8-x-----------|----------------|3-3-x-----------|4-4-x---6-6-x-88|
(2)
|----------------|----------------|----------------|----------------|
|----------------|------6-6-6-7-7-|----------------|------6-6-6-7-7-|
|6---5h6-6---5---|8---5-----------|6---5h6-6---5---|8---5-----------|
|--6-------6---6-|--6-------------|--6-------6---6-|--6-------------|
|----------------|----------------|----------------|----------------|
|----------------|----------------|----------------|----------------|

Repeat Chorus/Intro

Outro (Both Guitars)
|----------------|
|----------------|
|6~--------------|
|6~--------------|
|4~--------------|
|----------------|
Tap to rate this tab
 
# A B C D E F G H I J K L M N O P Q R S T U V W X Y Z