Song name
# A B C D E F G H I J K L M N O P Q R S T U V W X Y Z

Senses Fail - Rum Is For Drinking Not For Burning tab

Hey, I'm Yozoniac
I have seen lots of tabs out there and I've seen Senses Fail videos live and Iplay it live
as well, so after my experience here is my version of the song...

Senses Fail
"Rum Is for Drinking, Not for Burning"
Let It Enfold You [Bonus DVD] Disk 1

Email me for any corrections,advice,help..
Yosswell@hotmail.com

::GUITAR 1:: Garrett
::GUITAR 2:: Heath (since Dave is oooooooutt)

::GUITAR 1::
e|----------------------------------------------------------|
b|----------------------------------------------------------|
g|-101010--999--121212--101010\99/10-101010--999-55555-10\9-|
d|--x-x-x--xxx--xxxxxx--x-x-x--xx--x--x-x-x--xxx-xxxxx--x-x-|
a|--8-8-8--777--101010--8-8-8-\77/-8--8-8-8--777-33333--8\7-|
D|----------------------------------------------------------|

::GUITAR 2::
e|------------------------------------------|
b|------------------------------------------|
g|------------------------------------------|
d|-0000000000000000-8888888810101010101010--|
a|-0000000000000000-8888888810101010101010--|
D|-0000000000000000-8888888810101010101010--|

e|--------------------------------------------------------|
b|--------------------------------------------------------|
g|-101010--999--121212--101010\99/10-101010--999-55555555-|
d|--x-x-x--xxx--xxxxxx--x-x-x--xx--x--x-x-x--xxx-xxxxxxxx-|
a|--8-8-8--777--101010--8-8-8-\77/-8--8-8-8--777-33333333-|
D|--------------------------------------------------------|

::GUITAR 2::
e|------------------------------------------|
b|------------------------------------------|
g|------------------------------------------|
d|-0000000000000000-8888888810101010101010--|
a|-0000000000000000-8888888810101010101010--|
D|-0000000000000000-8888888810101010101010--|


(I Could have PowerTab the whole thing but not everyone has it, I'm just going to start
Placing the Tab and you listen to the song for the patterns and stuff)


::BOTH GUITARS::
e|------------------|
b|------------------|
g|---10-10--5-5-4-4-|
d|-0~-8--8--3-3-2-2-|
a|-0~-8--8--3-3-2-2-|
D|-0~-8--8--3-3-2-2-|

e|------------------|
b|------------------|
g|---10-10----------|
d|-0~-8--8--3-3-2-2-|
a|-0~-8--8--3-3-2-2-|
D|-0~-8--8--3-3-2-2-|
PM          - - - -

::GUITAR 1:: [This part is a little weird, listen to live recordings or the track itself]
e|-------------------------------------------------------|
b|-------------------------------------------------------|
g|--14-12\141414--14-12\141414--14-12141414--5555--4444--|
d|---X--X\-X-x-x---X--X\-X-X-x---x--X-X-X-X--XXXX--XXXX--|
a|--12-10\121212--12-10\121212--12-10121212--3333--2222--|
D|-------------------------------------------------------|

::GUITAR 2::
e|-------------------------------------|
b|-------------------------------------|
g|-------------------------------------|
d|-00000000000000888888888888883333222-|
a|-00000000000000888888888888883333222-|
D|-00000000000000888888888888883333222-|
PM  --- - - --- - --- - - --- - --- -

::GUITAR 1::
e|--------------------------------------------------|
b|--------------------------------------------------|
g|--14-12\141414--14-12\141414--14-12141414--55-44--|
d|---X--X\-X-x-x---X--X\-X-X-x---x--X-X-X-X--33-22--|
a|--12-10\121212--12-10\121212--12-10121212--33-22--|
D|-------------------------------------------33-22--|
PM                                           -- --

::GUITAR 2::
e|------------------------------------|
b|------------------------------------|
g|------------------------------------|
d|-0000000000000088888888888888-33-22-|
a|-0000000000000088888888888888-33-22-|
D|-0000000000000088888888888888-33-22-|
PM  --- - - --- - --- - - --- - -- --

::GUITAR 2::
e|--------------------------------------|--------------------------------------|
b|--------------------------------------|--------------------------------------|
g|----------Fill in according song------|-------Fill in according song---------|
d|-0------------------------------------|-8------------------------------------|
a|-0------------------------------------|-8------------------------------------|
D|-0------------------------------------|-8------------------------------------|

::GUITAR 1::
e|----------------8-8-10-10-------------|----------------8-8-10-10-------------|
b|--------------------------10-10-8-10--|--------------------------10-10-8-10--|
g|--9-9-10-10-7-7-----------------------|--9-9-10-10-7-7-----------------------|
d|--------------------------------------|--------------------------------------|
a|--------------------------------------|--------------------------------------|
D|--------------------------------------|--------------------------------------|

::GUITAR 2::
e|--------------------------------------|--------------------------------------|
b|--------------------------------------|--------------------------------------|
g|----------Fill in according song------|-5-----Fill in accoring song-----3-5--|
d|-3------------------------------------|-5-------------------------------3-5--|
a|-3------------------------------------|-3-------------------------------1-3--|
D|-3------------------------------------|--------------------------------------|

::GUITAR 1::
e|----------------8-8-10-10-------------|----------------8-8-10-10-------------|
b|--------------------------10-10-8-10--|--------------------------10-10-8-10--|
g|--9-9-10-10-7-7-----------------------|--9-9-10-10-7-7-----------------------|
d|--------------------------------------|--------------------------------------|
a|--------------------------------------|--------------------------------------|
D|--------------------------------------|--------------------------------------|

::GUITAR 2::
e|--------------------------------------|--------------------------------------|
b|--------------------------------------|--------------------------------------|
g|----------Fill in according song------|-------Fill in according song---------|
d|-0------------------------------------|-8------------------------------------|
a|-0------------------------------------|-8------------------------------------|
D|-0------------------------------------|-8------------------------------------|

::GUITAR 1::
e|----------------8-8-10-10-------------|----------------8-8-10-10-------------|
b|--------------------------10-10-8-10--|--------------------------10-10-8-10--|
g|--9-9-10-10-7-7-----------------------|--9-9-10-10-7-7-----------------------|
d|--------------------------------------|--------------------------------------|
a|--------------------------------------|--------------------------------------|
D|--------------------------------------|--------------------------------------|

::GUITAR 2::
e|--------------------------------------|--------------------------------------|
b|--------------------------------------|--------------------------------------|
g|----------Fill in according song------|-5-----Fill in accoring song-----3-5--|
d|-3------------------------------------|-5-------------------------------3-5--|
a|-3------------------------------------|-3-------------------------------1-3--|
D|-3------------------------------------|--------------------------------------|

::GUITAR 1::
e|----------------8-8-10-10-------------|----------------8-8-10-10-------------|
b|--------------------------10-10-8-10--|--------------------------10-10-8-10--|
g|--9-9-10-10-7-7-----------------------|--9-9-10-10-7-7-----------------------|
d|--------------------------------------|--------------------------------------|
a|--------------------------------------|--------------------------------------|
D|--------------------------------------|--------------------------------------|

::BOTH GUITARS::
e|------------------|
b|------------------|
g|---10-10--5-5-4-4-|
d|-0~-8--8--3-3-2-2-|
a|-0~-8--8--3-3-2-2-|
D|-0~-8--8--3-3-2-2-|

e|------------------|
b|------------------|
g|---10-10----------|
d|-0~-8--8--3-3-2-2-|
a|-0~-8--8--3-3-2-2-|
D|-0~-8--8--3-3-2-2-|
PM          - - - -

::GUITAR 1:: 
e|-------------------------------------------------------|
b|-------------------------------------------------------|
g|--14-12\141414--14-12\141414--14-12141414--5555--4444--|
d|---X--X\-X-x-x---X--X\-X-X-x---x--X-X-X-X--XXXX--XXXX--|
a|--12-10\121212--12-10\121212--12-10121212--3333--2222--|
D|-------------------------------------------------------|

::GUITAR 2::
e|-------------------------------------|
b|-------------------------------------|
g|-------------------------------------|
d|-00000000000000888888888888883333222-|
a|-00000000000000888888888888883333222-|
D|-00000000000000888888888888883333222-|
PM  --- - - --- - --- - - --- - --- -

::GUITAR 1::
e|--------------------------------------------------|
b|--------------------------------------------------|
g|--14-12\141414--14-12\141414--14-12141414--55-44--|
d|---X--X\-X-x-x---X--X\-X-X-x---x--X-X-X-X--33-22--|
a|--12-10\121212--12-10\121212--12-10121212--33-22--|
D|-------------------------------------------33-22--|
PM                                           -- --

::GUITAR 2::
e|------------------------------------|
b|------------------------------------|
g|------------------------------------|
d|-0000000000000088888888888888-33-22-|
a|-0000000000000088888888888888-33-22-|
D|-0000000000000088888888888888-33-22-|
PM  --- - - --- - --- - - --- - -- --

::GUITAR 2::
e|--------------------------------------|--------------------------------------|
b|--------------------------------------|--------------------------------------|
g|----------Fill in according song------|-------Fill in according song---------|
d|-0------------------------------------|-8------------------------------------|
a|-0------------------------------------|-8------------------------------------|
D|-0------------------------------------|-8------------------------------------|

::GUITAR 1::
e|----------------8-8-10-10-------------|----------------8-8-10-10-------------|
b|--------------------------10-10-8-10--|--------------------------10-10-8-10--|
g|--9-9-10-10-7-7-----------------------|--9-9-10-10-7-7-----------------------|
d|--------------------------------------|--------------------------------------|
a|--------------------------------------|--------------------------------------|
D|--------------------------------------|--------------------------------------|

::GUITAR 2::
e|--------------------------------------|--------------------------------------|
b|--------------------------------------|--------------------------------------|
g|----------Fill in according song------|-5-----Fill in accoring song-----3-5--|
d|-3------------------------------------|-5-------------------------------3-5--|
a|-3------------------------------------|-3-------------------------------1-3--|
D|-3------------------------------------|--------------------------------------|

::GUITAR 1::
e|----------------8-8-10-10-------------|----------------8-8-10-10-------------|
b|--------------------------10-10-8-10--|--------------------------10-10-8-10--|
g|--9-9-10-10-7-7-----------------------|--9-9-10-10-7-7-----------------------|
d|--------------------------------------|--------------------------------------|
a|--------------------------------------|--------------------------------------|
D|--------------------------------------|--------------------------------------|

::GUITAR 2::
e|--------------------------------------|--------------------------------------|
b|--------------------------------------|--------------------------------------|
g|----------Fill in according song------|-------Fill in according song---------|
d|-0------------------------------------|-8------------------------------------|
a|-0------------------------------------|-8------------------------------------|
D|-0------------------------------------|-8------------------------------------|

::GUITAR 1::
e|----------------8-8-10-10-------------|----------------8-8-10-10-------------|
b|--------------------------10-10-8-10--|--------------------------10-10-8-10--|
g|--9-9-10-10-7-7-----------------------|--9-9-10-10-7-7-----------------------|
d|--------------------------------------|--------------------------------------|
a|--------------------------------------|--------------------------------------|
D|--------------------------------------|--------------------------------------|

::GUITAR 2::
e|--------------------------------------|--------------------------------------|
b|--------------------------------------|--------------------------------------|
g|----------Fill in according song------|-5-----Fill in accoring song-----3-5--|
d|-3------------------------------------|-5-------------------------------3-5--|
a|-3------------------------------------|-3-------------------------------1-3--|
D|-3------------------------------------|--------------------------------------|

::GUITAR 1::
e|----------------8-8-10-10-------------|----------------8-8-10-10-------------|
b|--------------------------10-10-8-10--|--------------------------10-10-8-10--|
g|--9-9-10-10-7-7-----------------------|--9-9-10-10-7-7-----------------------|
d|--------------------------------------|--------------------------------------|
a|--------------------------------------|--------------------------------------|
D|--------------------------------------|--------------------------------------|

Both Guitars Pick Scrape up the neck



I haven't payed too well attention, but if you played guitar long 
enough you can definately BS thispart and kind give it that personal 
taste.

I play it like so according to what I have seen..


::BOTH GUITARS::
e|---------------------------------------------------------------------------------------------|
b|-----------------------1010101010/9-------------------------------1010101010/9---------------|
g|-101010-910101010-910---x-x-x-x-x/x9999910-101010-910101010-910----x-x-x-x-x/x9999910--------|
d|--x-x-x-x-x-x-x-x-x-x---8-8-8-8-8/7xxxxx-x--x-x-x-x-x-x-x-x-x-x----8-8-8-8-8/7xxxxx-x--33-22-|
a|--8-8-8-7-8-8-8-8-7-8--------------77777-8--8-8-8-7-8-8-8-8-7-8---------------77777-8--33-22-|
D|---------------------------------------------------------------------------------------33-22-|
PM    - -      - - -        - - -    ----        - -      - - -        - - -    ----

But if some prefer others, this one sounds pretty good..
"
e|---------------------------------------------------------------|
b|---------------------------------------------------------------|
g|-10-101010-9/10--10-101010-9/10--14-141414-12/14--12-121212-99-|
d|--x--x-x-x-x/-x---x--x-x-x-x/-x---x--x-x-x--x/-x---x--x-x-x-xx-|x1
a|--8--8-8-8-7/-8---8--8-8-8-7/-8--12-121212-10/12--10-101010-77-|
D|---------------------------------------------------------------|

e|-------------------------------------------------------|
b|-------------------------------------------------------|
g|-10-101010-9/10--10-101010-9/10--14-141414-12/14-------|
d|--x--x-x-x-x/-x---x--x-x-x-x/-x---x--x-x-x--x/-x-33-22-|x1
a|--8--8-8-8-7/-8---8--8-8-8-7/-8--12-121212-10/12-33-22-|
D|-------------------------------------------------33-22-|
"
Keep in mind that is not my tab there, it belongs from what I saw to
asleepatthewheel
a member of http://www.mxtabs.net/

ok.. where were we?


::GUITAR 2::
e|--------------------------------------|--------------------------------------|
b|--------------------------------------|--------------------------------------|
g|----------Fill in according song------|-------Fill in according song---------|
d|-0------------------------------------|-8------------------------------------|
a|-0------------------------------------|-8------------------------------------|
D|-0------------------------------------|-8------------------------------------|

::GUITAR 1::
e|----------------8-8-10-10-------------|----------------8-8-10-10-------------|
b|--------------------------10-10-8-10--|--------------------------10-10-8-10--|
g|--9-9-10-10-7-7-----------------------|--9-9-10-10-7-7-----------------------|
d|--------------------------------------|--------------------------------------|
a|--------------------------------------|--------------------------------------|
D|--------------------------------------|--------------------------------------|

::GUITAR 2::
e|--------------------------------------|--------------------------------------|
b|--------------------------------------|--------------------------------------|
g|----------Fill in according song------|-5-----Fill in accoring song-----3-5--|
d|-3------------------------------------|-5-------------------------------3-5--|
a|-3------------------------------------|-3-------------------------------1-3--|
D|-3------------------------------------|--------------------------------------|

::GUITAR 1::
e|----------------8-8-10-10-------------|----------------8-8-10-10-------------|
b|--------------------------10-10-8-10--|--------------------------10-10-8-10--|
g|--9-9-10-10-7-7-----------------------|--9-9-10-10-7-7-----------------------|
d|--------------------------------------|--------------------------------------|
a|--------------------------------------|--------------------------------------|
D|--------------------------------------|--------------------------------------|
::GUITAR 2::
e|--------------------------------------|--------------------------------------|
b|--------------------------------------|--------------------------------------|
g|----------Fill in according song------|-------Fill in according song---------|
d|-0------------------------------------|-8------------------------------------|
a|-0------------------------------------|-8------------------------------------|
D|-0------------------------------------|-8------------------------------------|

::GUITAR 1::
e|----------------8-8-10-10-------------|----------------8-8-10-10-------------|
b|--------------------------10-10-8-10--|--------------------------10-10-8-10--|
g|--9-9-10-10-7-7-----------------------|--9-9-10-10-7-7-----------------------|
d|--------------------------------------|--------------------------------------|
a|--------------------------------------|--------------------------------------|
D|--------------------------------------|--------------------------------------|

::GUITAR 2::
e|--------------------------------------|--------------------------------------|
b|--------------------------------------|--------------------------------------|
g|----------Fill in according song------|-5-----Fill in accoring song-----3-5--|
d|-3------------------------------------|-5-------------------------------3-5--|
a|-3------------------------------------|-3-------------------------------1-3--|
D|-3------------------------------------|--------------------------------------|

::GUITAR 1::
e|----------------8-8-10-10-------------|----------------8-8-10-10-------------|
b|--------------------------10-10-8-10--|--------------------------10-10-8-10--|
g|--9-9-10-10-7-7-----------------------|--9-9-10-10-7-7-----------------------|
d|--------------------------------------|--------------------------------------|
a|--------------------------------------|--------------------------------------|
D|--------------------------------------|--------------------------------------|

[Update: Thanks to Garrett Zablocki]

::GUITAR 1:: [Repeats 4 times]
e|----------------8-8-10-10-------------|
b|--------------------------10-10-8-10--|
g|--9-9-10-10-7-7-----------------------|
d|--------------------------------------|
a|--------------------------------------|
D|--------------------------------------|

::GUITAR 2:: [Repeats 4 times]
e|----------------------------------------|
b|--8-8-10-10-------10-10-8-8-------------|
g|------------10-10-----------10-10-9-10--|
d|----------------------------------------|
a|----------------------------------------|
D|----------------------------------------|


::GUITAR 1:: [Repeats 4 times] 
e|--8-8-10-10-------13-13-12-12-10-10-8-10--|
b|------------10-10-------------------------|
g|------------------------------------------|
d|------------------------------------------|
a|------------------------------------------|
D|------------------------------------------|

::GUITAR 2: [Repeat 4 times] 
e|---------------------------------|
b|---------------------------------|
g|--5-5-7-7-----10-10-9-9-7-7-5-7--|
d|----------7-7--------------------|
a|---------------------------------|
D|---------------------------------|

::GUITAR 1:: [Repeats 3 times]
e|----------------8-8-10-10-------------|
b|--------------------------10-10-8-10--|
g|--9-9-10-10-7-7-----------------------|
d|--------------------------------------|
a|--------------------------------------|
D|--------------------------------------|

::GUITAR 2:: [Repeats 3 times]
e|----------------------------------------|
b|--8-8-10-10-------10-10-8-8-------------|
g|------------10-10-----------10-10-9-10--|
d|----------------------------------------|
a|----------------------------------------|
D|----------------------------------------|

[For the ending pluck the last note while having a reverse delay on max] 
[      If you don't have it, it's fine, who cares, get creative        ]

Tap to rate this tab
# A B C D E F G H I J K L M N O P Q R S T U V W X Y Z