Song name
# A B C D E F G H I J K L M N O P Q R S T U V W X Y Z

Senses Fail - Irony Of Dying On Your Birthday tab

Help us improve GuitareTab! Take a short survey!
x= Deaden the string
*= Palm mute
/= slide up
\= Slide Down
h= hammer on
p= pull off

Drop D (DADGBE)
tune to 435Hz using an electronic tuner.
listen for the strumming patterns.

Intro:
Guitar 1:
|---------------------|
|---------------------|
|--1212-1212-1212-1313|
|--1010-1010-1010-1010|
|--1010-1010-1010-1010|
|--1010-1010-1010-1010|

Guitar 2:
|-------------|
|-------------|
|--88-88-88-77|
|--66-66-66-66|
|--66-66-66-66|
|--66-66-66-66|

Guitar 1+2:
|---------------------------------------|
|---------------------------------------|
|--1212-1212-1212-1313---77-77-77-88-887|
|--1010-1010-1010-1010---66-66-66-66-666|
|--1010-1010-1010-1010---66-66-66-66-666|
|--1010-1010-1010-1010---66-66-66-66-666|

|----------------------------------------|
|----------------------------------------|
|--1212-1212-1212-1313---77-77-77-88-8877|
|--1010-1010-1010-1010---66-66-66-66-6666|
|--1010-1010-1010-1010---66-66-66-66-6666|
|--1010-1010-1010-1010---66-66-66-66-6666|

Guitar 1:
|----------------------------------------|
|----------------------------------------|
|--1212-1212-1212-1313---77-77-77-88-8877|
|--1010-1010-1010-1010---66-66-66-66-6666|
|--1010-1010-1010-1010---66-66-66-66-6666|
|--1010-1010-1010-1010---66-66-66-66-6666|
lead guitar comes in with this^
                             "just know..."
|-------------------------------------|
|-------------------------------------|
|--1212-1212-1212-1313---77-77-77-88-8|
|--1010-1010-1010-1010---66-66-66-66-6|
|--1010-1010-1010-1010---66-66-66-66-6|
|--1010-1010-1010-1010---66-66-66-66-6|

Guitar 2:
this isnt the correct strumming pattern. listen to figure it out, its not that hard.
|-------------------------------------|
|--88888888899999999------------------|
|--xxxxxxxxxxxxxxxxx777777778888877777|
|--55555555566666666xxxxxxxxxxxxxxxxxx|
|-------------------555555556666655555|
|-------------------------------------|

|-------------------------------|
|--88888888899999999------------|
|--xxxxxxxxxxxxxxxxx777777778888|
|--55555555566666666xxxxxxxxxxxx|
|-------------------555555556666|
|-------------------------------|

verse:
Guitar 1+2
|------------------------------------------------|
|------------------------------------------------|
|------------------------------------------------|
|--1010--1010--1010--1010--1010--1010--1010--1010|
|--1010--1010--1010--1010--1010--1010--1010--1010|
|--1010--1010--1010--1010--1010--1010--1010--1010|
    * *   * *   * *   * *   * *   * *   * *   * *
|----------------------------------|
|----------------------------------|
|----------------------------------|
|--66--66--66--66--66--66--66666666|
|--66--66--66--66--66--66--66666666|
|--66--66--66--66--66--66--66666666|
   **  **  **  **  **  **  ********

|------------------------------------------------|
|------------------------------------------------|
|------------------------------------------------|
|--1010--1010--1010--1010--1010--1010--1010--1010|
|--1010--1010--1010--1010--1010--1010--1010--1010|
|--1010--1010--1010--1010--1010--1010--1010--1010|
    * *   * *   * *   * *   * *   * *   * *   * *
|----------------------------------|
|----------------------------------|
|----------------------------------|
|--66--66--66--66--66--66--66666666|
|--66--66--66--66--66--66--66666666|
|--66--66--66--66--66--66--66666666|
   **  **  **  **  **  **  ********

Pre-Chorus:
guitar 1:
|----------------------------------------------|
|----------------------------------------------|
|--------------------7-8-10--8-----------------|
|--1010-10-12-13--66------------1010-10-12-13--|
|--1010-----------66------------1010-----------|
|--1010-----------66------------1010-----------|
      *            *               *
guitar 2:
|-----------------------------------------|
|-----------------------------------------|
|--55--------------------------55---------|
|--55-----------66-------------55---------|
|--33--6-8-10---66--5-6-8-6----33--6-8-10-|
|---------------66------------------------|
    *            *              *

chorus:    once again listen for the strumming patterns

guitar 1:
|--------------------------------------------|
|--------------------------------------------|
|--------------------------------------------|
|--66--5-6-10---6---1---8---10---6---1---8---|
|--66--5-6-10---6---1---8---10---6---1---8---|
|--66--5-6-10---6---1---8---10---6---1---8---|
    *
guitar 2: 
|---------------------------------------------------------------|
|------------------------8-------------------------8------------|
|------------8---10-8--7-x----7--5--7--8---10-8--7-x---7--5--7--|
|--66--5-6---x----x-x--x-5----x--x--x--x----x-x--x-5---x--x--x--|
|--66--5-6---6----8-6--5------5--3--5--6----8-6--5-----5--3--5--|
|--66--5-6------------------------------------------------------|
    *
verse:
Guitar 1+2
|------------------------------------------------|
|------------------------------------------------|
|------------------------------------------------|
|--1010--1010--1010--1010--1010--1010--1010--1010|
|--1010--1010--1010--1010--1010--1010--1010--1010|
|--1010--1010--1010--1010--1010--1010--1010--1010|
    * *   * *   * *   * *   * *   * *   * *   * *
|----------------------------------|
|----------------------------------|
|----------------------------------|
|--66--66--66--66--66--66--66666666|
|--66--66--66--66--66--66--66666666|
|--66--66--66--66--66--66--66666666|
   **  **  **  **  **  **  ********

|------------------------------------------------|
|------------------------------------------------|
|------------------------------------------------|
|--1010--1010--1010--1010--1010--1010--1010--1010|
|--1010--1010--1010--1010--1010--1010--1010--1010|
|--1010--1010--1010--1010--1010--1010--1010--1010|
    * *   * *   * *   * *   * *   * *   * *   * *
|----------------------------------|
|----------------------------------|
|----------------------------------|
|--66--66--66--66--66--66--66666666|
|--66--66--66--66--66--66--66666666|
|--66--66--66--66--66--66--66666666|
   **  **  **  **  **  **  ********

Pre-Chorus:
guitar 1:
|----------------------------------------------|
|----------------------------------------------|
|--------------------7-8-10--8-----------------|
|--1010-10-12-13--66------------1010-10-12-13--|
|--1010-----------66------------1010-----------|
|--1010-----------66------------1010-----------|
      *            *               *
guitar 2:
|------------------------------------------|
|------------------------------------------|
|--55--------------------------55----------|
|--55-----------66-------------55----------|
|--33--6-8-10---66--5-6-8-6----33--6-8-10--|
|---------------66-------------------------|
    *            *              *

chorus:    once again listen for the strumming patterns
guitar 1:
|--------------------------------------------|
|--------------------------------------------|
|--------------------------------------------|
|--66--5-6-10---6---1---8---10---6---1---8---|
|--66--5-6-10---6---1---8---10---6---1---8---|
|--66--5-6-10---6---1---8---10---6---1---8---|
    *
guitar 2:
|---------------------------------------------------------------|
|------------------------8-------------------------8------------|
|------------8---10-8--7-x----7--5--7--8---10-8--7-x---7--5--7--|
|--66--5-6---x----x-x--x-5----x--x--x--x----x-x--x-5---x--x--x--|
|--66--5-6---6----8-6--5------5--3--5--6----8-6--5-----5--3--5--|
|--66--5-6------------------------------------------------------|
    *

verse 2: 

Guitar 1:              
|-------------------------------------------||
|-------------------------------------------||
|-------------------------------------------||
|--10101010--6666--6\1111--1/8888-8888-88/|-||
|--10101010--6666--6\1111--1/8888-8888-88/|-||
|--10101010--6666--6\1111--1/8888-8888-88/|-||
    * * * *  ****    ****    **** **** **
         not an eleven^

|-------------------------------------------||
|-------------------------------------------||
|-------------------------------------------||
|--10101010--6666--6\1111--1/8888-8888-88/|-||
|--10101010--6666--6\1111--1/8888-8888-88/|-||
|--10101010--6666--6\1111--1/8888-8888-88/|-||
    * * * *  ****    ****    **** **** **

|--------------------------------------------|
|--------------------------------------------|
|--------------------------------------------|
|--1010-1010--66-66--11-11--88-88-88-88-8888-|
|--1010-1010--66-66--11-11--88-88-88-88-8888-|
|--1010-1010--66-66--11-11--88-88-88-88-8888-|


|----------------------------------------------------------------|
|----------------------------------------------------------------|
|--1212-1212-1313-77-77-77-88-8877-88-88-88-88-------------------|
|--1010-1010-1010-66-66-66-66-6666-66-66-66-66---88-88-88-88-8888|
|--1010-1010-1010-66-66-66-66-6666-66-66-66-66---88-88-88-88-8888|
|--1010-1010-1010-66-66-66-66-6666-66-66-66-66---88-88-88-88-8888|
                               played just as fast as the rest^

Guitar 2:
comes in right with guitar one. use double picking.
|------------------------------------------------------------------------|
|------------------------------------------------------------------------|
|--8877--8877--5-7-8877--8877--5-7-8877--8877--5-7-10-1010--8-887h8p7----|
|------88----88--------88----88--------88----88-----------------------8--|
|------------------------------------------------------------------------|
|------------------------------------------------------------------------|

|------------------------------------------------------------------------|
|------------------------------------------------------------------------|
|--8877--8877--5-7-8877--8877--5-7-8877--8877--5-7-10-1010--8-887h8p7----|
|------88----88--------88----88--------88----88-----------------------8--|
|------------------------------------------------------------------------|
|------------------------------------------------------------------------|

|------------------------------------------------------------------------|
|------------------------------------------------------------------------|
|--8877--8877--5-7-8877--8877--5-7-8877--8877--5-7-10-1010--8-887h8p7----|
|------88----88--------88----88--------88----88-----------------------8--|
|------------------------------------------------------------------------|
|------------------------------------------------------------------------|

|------------------------------------------------------------------------|
|------------------------------------------------------------------------|
|--8877--8877--5-7-8877--8877--5-7-8877--8877--5-7-10-1010--8-887h8p7----|
|------88----88--------88----88--------88----88-----------------------8--|
|------------------------------------------------------------------------|
|------------------------------------------------------------------------|


chorus:    once again listen for the strumming patterns,

guitar 1:
|-------------------------------------|
|-------------------------------------|
|-------------------------------------|
|---10---6---1---8---10---6---1---8---|
|---10---6---1---8---10---6---1---8---|
|---10---6---1---8---10---6---1---8---|

guitar 2: 
|-------------------------------------------------------|
|-----------------8------------------------8------------|
|-----8---10-8--7-x---7--5--7--8---10-8--7-x---7--5--7--|
|-----x----x-x--x-5---x--x--x--x----x-x--x-5---x--x--x--|
|-----6----8-6--5-----5--3--5--6----8-6--5-----5--3--5--|
|-------------------------------------------------------|


guitar 1:                             end note:
|-------------------------------------|-------||
|-------------------------------------|-------||
|-------------------------------------|-------||
|---10---6---1---8---10---6---1---8---|10\----||
|---10---6---1---8---10---6---1---8---|10\----||
|---10---6---1---8---10---6---1---8---|10\----||

guitar 2:
|--------------------------------------------------|
|--------------------------------------------------|
|-----12--10--8--13--12--10--12--10--8-10-7--5--7--|
|------x---x--x---x---x---x---x---x--x--x-x--x--x--|
|-----10---8--6--11--10---8--10---8--6--8-5--3--5--|
|--------------------------------------------------|

|--------------------------------------------|
|--------------------------------------------|
|-----12--10--8--13--12--10--12--10--8-10-7--|
|------x---x--x---x---x---x---x---x--x--x-x--|
|-----10---8--6--11--10---8--10---8--6--8-5--|
|--------------------------------------------|

             End note:
|------------|-------||
|------------|-------||
|--5555--7777|8\-----||
|--xxxx--xxxx|x------||
|--3333--5555|6\-----||
|------------|-------||


*|*EDITED*|*
i've redone the chorus and ending, and lead bridge.
should be 100% correct.
Related for Irony Of Dying On Your Birthday tab