Song name
# A B C D E F G H I J K L M N O P Q R S T U V W X Y Z

Senses Fail - Lady In A Blue Dress tab

Intro (Drop D)

Guitar 1:
e|-5-5-5-5-5-5--0000--2-2-2-2-2-2--000------|
B|-3-3-3-3-3-3--3333--3-3-3-3-3-3--333------|
G|------------------------------------------|
D|------------------------------------------|
A|------------------------------------------|
D|------------------------------------------|    x2

Guitar 1

e|-555555555555-0000-222222-000000000000------|
B|-333333222222-3333-333333-333333333333------|
G|--------------------------------------------|
D|--------------------------------------------|
A|--------------------------------------------|
D|--------------------------------------------|

Guitar 2

e|------------------------------------|
B|------------------------------------|
G|------------------------------------|
D|--999999999999-0000-555555555555----|
A|--999999999999-0000-555555555555----|
D|--999999999999-0000-555555555555----|

"Just Like The Lady..."
Guitar 1

e|-5-5-5-5-5-5--0000--2-2-2-2-2-2--000------|
B|-3-3-3-3-3-3--3333--3-3-3-3-3-3--333------|
G|------------------------------------------|
D|------------------------------------------|
A|------------------------------------------|
D|------------------------------------------|

Guitar 2

e|----------------------------------------------------------|
B|----------------------------------------------------------|
G|----------------------------------------------------------|
D|--9x9x9x9x9x9x9x9x9x9x9x9-0000-5x5x5x5x5x5x5x5x5x5x5x5----|
A|--9x9x9x9x9x9x9x9x9x9x9x9-0000-5x5x5x5x5x5x5x5x5x5x5x5----|
D|--9x9x9x9x9x9x9x9x9x9x9x9-0000-5x5x5x5x5x5x5x5x5x5x5x5----| << Do This Once then do this...

e|----------------------------------------------|
B|----------------------------------------------|
G|--14---------14/-16--16-16-16-16----14--------|
D|--x----x22---x--x----x--x--x--x-----x-----x8--|
a|--12---------12/14---14-14-14-14----12--------|
D|----------------------------------------------|

Chorus
"and You said..."

e|------------------------------------------------------------------|
B|------------------------------------------------------------------|
G|------------------------------------------------------------------|
D|--000000000000000-777777777777777-99999999999999-55555555555555---|
A|--000000000000000-777777777777777-99999999999999-55555555555555---|
D|--000000000000000-777777777777777-99999999999999-55555555555555---|  x2


Guitar 1

e|-5-5-5-5-5-5--0000--2-2-2-2-2-2--000------|
B|-3-3-3-3-3-3--3333--3-3-3-3-3-3--333------|
G|------------------------------------------|
D|------------------------------------------|
A|------------------------------------------|
D|------------------------------------------|

Guitar 2

e|----------------------------------------------------------|
B|----------------------------------------------------------|
G|----------------------------------------------------------|
D|--9x9x9x9x9x9x9x9x9x9x9x9-0000-5x5x5x5x5x5x5x5x5x5x5x5----|
A|--9x9x9x9x9x9x9x9x9x9x9x9-0000-5x5x5x5x5x5x5x5x5x5x5x5----|
D|--9x9x9x9x9x9x9x9x9x9x9x9-0000-5x5x5x5x5x5x5x5x5x5x5x5----| << Do This Once then do this...

e|----------------------------------------------|
B|----------------------------------------------|
G|--14---------14/-16--16-16-16-16----14--------|
D|--x----x22---x--x----x--x--x--x-----x-----x8--|
a|--12---------12/14---14-14-14-14----12--------|
D|----------------------------------------------|

Chorus

e|------------------------------------------------------------------|
B|------------------------------------------------------------------|
G|------------------------------------------------------------------|
D|--000000000000000-777777777777777-99999999999999-55555555555555---|
A|--000000000000000-777777777777777-99999999999999-55555555555555---|
D|--000000000000000-777777777777777-99999999999999-55555555555555---|  x2

"Don't Try To Be Cute.."

e|-----------------------------------------------|
B|-----------------------------------------------|
G|--11-------------14---7--------12-------9------|
D|--x---x10--x----x--x6----x---x4---x---x2-------|
A|--9--------------12---5--------10-------7------|
D|-----------------------------------------------|    x4


"Just Like The Lady..."
Guitar 1

e|-5-5-5-5-5-5--0000--2-2-2-2-2-2--000------|
B|-3-3-3-3-3-3--3333--3-3-3-3-3-3--333------|
G|------------------------------------------|
D|------------------------------------------|
A|------------------------------------------|
D|------------------------------------------| x2

Guitar 2

e|----------------------------------------------------------|
B|----------------------------------------------------------|
G|----------------------------------------------------------|
D|--9x9x9x9x9x9x9x9x9x9x9x9-0000-5x5x5x5x5x5x5x5x5x5x5x5----|
A|--9x9x9x9x9x9x9x9x9x9x9x9-0000-5x5x5x5x5x5x5x5x5x5x5x5----|
D|--9x9x9x9x9x9x9x9x9x9x9x9-0000-5x5x5x5x5x5x5x5x5x5x5x5----|   x2

Last Chorus

Guitar 1

e|------------------------------------------------------------------|
B|------------------------------------------------------------------|
G|------------------------------------------------------------------|
D|--000000000000000-777777777777777-99999999999999-55555555555555---|
A|--000000000000000-777777777777777-99999999999999-55555555555555---|
D|--000000000000000-777777777777777-99999999999999-55555555555555---|  x2

Guitar 2

(While Guitar 1 is playing)
e|---------------------------------------------------------|
B|---------------------------------------------------------|
G|--14-------/16-------14--------12-------11--------7------|
D|--x----x8--/x---x4---x-----x8--x---x4---x---x12---x---x12|
A|--12-------/14-------12--------10-------9---------5------|
D|---------------------------------------------------------|  x2
Both Guitars (at end of song)

e|-----|
B|-----|
G|-----| [Let Ring]
D|--0--|
A|--0--|
D|--0--|

Tap to rate this tab
# A B C D E F G H I J K L M N O P Q R S T U V W X Y Z