Song name
# A B C D E F G H I J K L M N O P Q R S T U V W X Y Z

Senses Fail - Tie Her Down tab

Help us improve GuitareTab! Take a short survey!
this is my first tab it's only the first guitar i'm working on the second
one i'll have it done soon. PLEASE RATE! If you have any comments or
questions you can reach me at Wickedblood@aol.com

Guitar I
|-----------------------------------------|------------------------------|
|-10-10-10-10-10-10-10-10-x---------------|------------------------------|
|-10-10-10-10-10-10-10-10-x-6-6-6-6-6-6-6-|-x-7-7-7-7-7-7-7--------------|
|--9--9--9--9--9--9--9--9-x-0-0-0-0-0-0-0-|-x-5-5-5-5-5-5-5-----0--------|
|--9--9--9--9--9--9--9--9-x-0-0-0-0-0-0-0-|-x-5-5-5-5-5-5-5-----0--------|
|--9--9--9--9--9--9--9--9-x-0-0-0-0-0-0-0-|-x-5-5-5-5-5-5-5-0-0-0-4-5-4-0|

|----------------------------------------|------------------------------|
|-x-10-10-10-10-10-10-10-x---------------|------------------------------|
|-x-10-10-10-10-10-10-10-x-6-6-6-6-6-6-6-|-x-7-7-7-7-7-7-7--------------|
|-x--9--9--9--9--9--9--9-x-0-0-0-0-0-0-0-|-x-5-5-5-5-5-5-5-----0--------|
|-x--9--9--9--9--9--9--9-x-0-0-0-0-0-0-0-|-x-5-5-5-5-5-5-5-----0--------|
|-x--9--9--9--9--9--9--9-x-0-0-0-0-0-0-0-|-x-5-5-5-5-5-5-5-0-0-0-4-5-4-0|


Verse
|----------------------------------|----------------------------|
|-----10-10-10-10-10---------------|----------------------------|
|-----10-10-10-10-10-----6-6-6-6-6-|-----7-7-7-7-7--------------|
|------9--9--9--9--9-----0-0-0-0-0-|-----5-5-5-5-5-----0--------|
|------9--9--9--9--9-----0-0-0-0-0-|-----5-5-5-5-5-----0--------|
|-9-9--9--9--9--9--9-0-0-0-0-0-0-0-|-5-5-5-5-5-5-5-0-0-0-4-5-4-0|X2

|--------------------------------------|--------------------------------|
|-----10---10---10-10---10-8---8---8-8-|---8-7---7---7-7---7---7-8-7---7|
|-7-7----7----7-------7------7---7-----|-7-----7---7-----7---7-------7--|
|--------------------------------------|--------------------------------|
|--------------------------------------|--------------------------------|
|--------------------------------------|--------------------------------|X2


Pre-Chorus (All PMed)
|------------------|-----------|
|------------------|-----------|
|------------------|-----------|
|------------------|-----------|
|-2-2----2-2----4-4|-5-5----5-5|
|-2-2----2-2----4-4|-5-5----5-5|

|--------------------|
|--------------------|
|--------------------|
|-------------------5|
|-2-2----2-2----4-4-5|
|-2-2----2-2----4-4-5|


Chorus x2
|------------------------------------------------|
|-10-10-10-10-10-10-10-10-10-10-10-10-10-10-10-10|
|-10-10-10-10-10-10-10-10-10-10-10-10-10-10-10-10|
|--9--9--9--9--9--9--9--9--9--9--9--9--9--9--9--9|
|--9--9--9--9--9--9--9--9--9--9--9--9--9--9--9--9|
|--9--9--9--9--9--9--9--9--9--9--9--9--9--9--9--9|

|------------------------------------------------|
|-10-10-10-10-10-10-10-10-10-10-10-10-10-10-10-10|
|-10-10-10-10-10-10-10-10-10-10-10-10-10-10-10-10|
|--9--9--9--9--9--9--9--9--9--9--9--9--9--9--9--9|
|--9--9--9--9--9--9--9--9--9--9--9--9--9--9--9--9|
|--9--9--9--9--9--9--9--9--9--9--9--9--9--9--9--9|

|--------------------------------|
|--------------------------------|
|-7-7-7-7-7-7-7-7-7-7-7-7-7-7-7-7|
|-5-5-5-5-5-5-5-5-5-5-5-5-5-5-5-5|
|-5-5-5-5-5-5-5-5-5-5-5-5-5-5-5-5|
|-5-5-5-5-5-5-5-5-5-5-5-5-5-5-5-5|

|--------------------------------|
|--------------------------------|
|-7-7-7-7-7-7-7-7-7-7-7-7-7-7-7-7|
|-5-5-5-5-5-5-5-5-5-5-5-5-5-5-5-5|
|-5-5-5-5-5-5-5-5-5-5-5-5-5-5-5-5|
|-5-5-5-5-5-5-5-5-5-5-5-5-5-5-5-5|

END 2ND
|--------------------------------|
|--------------------------------|
|-7-7-7-7-7-7-7-7-7-7-7-7-7-7-7-7|
|-5-5-5-5-5-5-5-5-5-5-5-5-7-7-7-7|
|-5-5-5-5-5-5-5-5-5-5-5-5-7-7-7-7|
|-5-5-5-5-5-5-5-5-5-5-5-5-7-7-7-7|


Verse
|----------------------------------|----------------------------|
|-----10-10-10-10-10---------------|----------------------------|
|-----10-10-10-10-10-----6-6-6-6-6-|-----7-7-7-7-7--------------|
|------9--9--9--9--9-----0-0-0-0-0-|-----5-5-5-5-5-----0--------|
|------9--9--9--9--9-----0-0-0-0-0-|-----5-5-5-5-5-----0--------|
|-9-9--9--9--9--9--9-0-0-0-0-0-0-0-|-5-5-5-5-5-5-5-0-0-0-4-5-4-0|X2

|--------------------------------------|--------------------------------|
|-----10---10---10-10---10-8---8---8-8-|---8-7---7---7-7---7---7-8-7---7|
|-7-7----7----7-------7------7---7-----|-7-----7---7-----7---7-------7--|
|--------------------------------------|--------------------------------|
|--------------------------------------|--------------------------------|
|--------------------------------------|--------------------------------|X2


Pre-Chorus(All PMed)
|------------------|-----------|
|------------------|-----------|
|------------------|-----------|
|------------------|-----------|
|-2-2----2-2----4-4|-5-5----5-5|
|-2-2----2-2----4-4|-5-5----5-5|

|--------------------|
|--------------------|
|--------------------|
|-------------------5|
|-2-2----2-2----4-4-5|
|-2-2----2-2----4-4-5|


Chorus x2
|------------------------------------------------|
|-10-10-10-10-10-10-10-10-10-10-10-10-10-10-10-10|
|-10-10-10-10-10-10-10-10-10-10-10-10-10-10-10-10|
|--9--9--9--9--9--9--9--9--9--9--9--9--9--9--9--9|
|--9--9--9--9--9--9--9--9--9--9--9--9--9--9--9--9|
|--9--9--9--9--9--9--9--9--9--9--9--9--9--9--9--9|

|------------------------------------------------|
|-10-10-10-10-10-10-10-10-10-10-10-10-10-10-10-10|
|-10-10-10-10-10-10-10-10-10-10-10-10-10-10-10-10|
|--9--9--9--9--9--9--9--9--9--9--9--9--9--9--9--9|
|--9--9--9--9--9--9--9--9--9--9--9--9--9--9--9--9|
|--9--9--9--9--9--9--9--9--9--9--9--9--9--9--9--9|

|--------------------------------|
|--------------------------------|
|-7-7-7-7-7-7-7-7-7-7-7-7-7-7-7-7|
|-5-5-5-5-5-5-5-5-5-5-5-5-5-5-5-5|
|-5-5-5-5-5-5-5-5-5-5-5-5-5-5-5-5|
|-5-5-5-5-5-5-5-5-5-5-5-5-5-5-5-5|

|--------------------------------|
|--------------------------------|
|-7-7-7-7-7-7-7-7-7-7-7-7-7-7-7-7|
|-5-5-5-5-5-5-5-5-5-5-5-5-5-5-5-5|
|-5-5-5-5-5-5-5-5-5-5-5-5-5-5-5-5|
|-5-5-5-5-5-5-5-5-5-5-5-5-5-5-5-5|

END 2ND
|--------------------------------|
|--------------------------------|
|-7-7-7-7-7-7-7-7-7-7-7-7-7-7-7-7|
|-5-5-5-5-5-5-5-5-5-5-5-5-7-7-7-7|
|-5-5-5-5-5-5-5-5-5-5-5-5-7-7-7-7|
|-5-5-5-5-5-5-5-5-5-5-5-5-7-7-7-7|


Interlude
|--------|
|--------|
|--------|
|--0-----|
|--0-----|
|--0-----|

|--------|
|--------|
|--------|
|--5-----|
|--5-----|
|--5-----|

|--------|
|--------|
|--------|
|--9-----|
|--9-----|
|--9-----|

|--------|
|--------|
|--------|
|--5-----|
|--5-----|
|--5-----|


Bridge
|--------|
|--------|
|--------|
|--0-----|
|--0-----|
|--0-----|

|--------|
|--------|
|--------|
|--5-----|
|--5-----|
|--5-----|

|--------|
|--------|
|--------|
|--9-----|
|--9-----|
|--9-----|

|--------|
|--------|
|--------|
|--5-----|
|--5-----|
|--5-----|

|--------------------------------------------|
|--------------------------------------------|
|--------------------------------------------|
|--------------------------------------------|
|--0-0--0-0---0--0--0-0--0-0---0--0--0-0--0-0|
|--0-0--0-0---0--0--0-0--0-0---0--0--0-0--0-0|

|--------------------------------------------|
|--------------------------------------------|
|--------------------------------------------|
|--------------------------------------------|
|--0-0--0-0---0--0--0-0--0-0---0--0--0-0--0-0|
|--0-0--0-0---0--0--0-0--0-0---0--0--0-0--0-0|

|----------------------------------------|
|----------------------------------------|
|----------------------------------------|
|----------------------------------------|
|--5-5--5-5--5-5--5-5--5-5--5-5--5-5--5-5|
|--5-5--5-5--5-5--5-5--5-5--5-5--5-5--5-5|

|----------------------------------------|
|----------------------------------------|
|----------------------------------------|
|----------------------------------------|
|--5-5--5-5--5-5--5-5--5-5--5-5--5-5--5-5|
|--5-5--5-5--5-5--5-5--5-5--5-5--5-5--5-5|

|----------------------------------------|
|----------------------------------------|
|----------------------------------------|
|----------------------------------------|
|--9-9--9-9--9-9--9-9--9-9--9-9--9-9--9-9|
|--9-9--9-9--9-9--9-9--9-9--9-9--9-9--9-9|

|----------------------------------------|
|----------------------------------------|
|----------------------------------------|
|----------------------------------------|
|--9-9--9-9--9-9--9-9--9-9--9-9--9-9--9-9|
|--9-9--9-9--9-9--9-9--9-9--9-9--9-9--9-9|

|-------------------------|---------------|
|-------------------------|---------------|
|-------------------------|---------------|
|-------------------------|---------------|
|--5--5--5--5--5--5--5--5-|--5--5--5--5--5|
|--5--5--5--5--5--5--5--5-|--5--5--5--5--5|


Out-Chorus
|----------------|--------------|----------------|--------------|
|----------------|--------------|----------------|--------------|
|-7-7-7-7-7-7-7-7|-7-7-7-7-7-7-7|7-7-7-7-7-7-7-7-|7-7-7---------|
|----------------|--------------|----------------|--------------|
|-5-5-5-5-5-5-5-5|-5-5-5-5-5-5-5|5-5-5-5-5-5-5-5-|5-5-5-5-5-5-5-|
|----------------|--------------|----------------|------5-5-5-5-|
                                                        PM----|
|------------------------|---------------------|
|------------------------|---------------------|
|-11-11-11-11-11-11-11-11|-11-11-11-11-11-11-11|
|------------------------|---------------------|
|--9--9--9--9--9--9--9--9|--9--9--9--9--9--9--9|
|------------------------|---------------------|
                   
|----------------|---------------|
|----------------|---------------|
|-7-7-7-7-7-7-7-7|--7-9-9-9-9-9-9|
|----------------|---------------|
|-5-5-5-5-5-5-5-5|--5-7-7-7-7-7-7|
|----------------|---------------|

|----------------|----------------|----------------|----------------|
|----------------|----------------|----------------|----------------|
|-7-7-7-7-7-7-7-7|-7-7-7-7-7-7-7-7|-7-7-7-7-7-7-7-7|-7-7-7-7--------|
|----------------|----------------|----------------|----------------|
|-5-5-5-5-5-5-5-5|-5-5-5-5-5-5-5-5|-5-5-5-5-5-5-5-5|-5-5-5-5-5-5-5-5|
|----------------|----------------|----------------|---------5-5-5-5|
							     PM|---|
|------------------------|------------------------|
|------------------------|------------------------|
|-11-11-11-11-11-11-11-11|-11-11-11-11-11-11-11-11|
|------------------------|------------------------|
|--9--9--9--9--9--9--9--9|--9--9--9--9--9--9--9--9|
|------------------------|------------------------|

|----------------|----------------|
|----------------|----------------|
|-7-7-7-7-7-7-7-7|-7-7-9-9-9-9-9-9|
|----------------|----------------|
|-5-5-5-5-5-5-5-5|-5-5-7-7-7-7-7-7|
|----------------|----------------|

|------|
|------|
|------|
|-0----|
|-0----|
|-0----|
Related for Tie Her Down tab