Song name
# A B C D E F G H I J K L M N O P Q R S T U V W X Y Z

Senses Fail - Youre Cute When You Scream tab

Senses Fail
"You're Cute When You Scream"
Let it Enfold You


Guitar 1 = Right Speaker (Garrett)
Guitar 2 = Left Speaker (Dave)



INTRO:

Right Speaker-

|--------------------------------------------------------------------------|
|--------------------------------------------------------------------------|
|---------7/3-5/3-3/5------------------------------------------------------|
|--5~----------------------------------------------------------------------|
|--5~----------------------------------------------------------------------|
|--5~----------------------------------------------------------------------|


Left Speaker-

|--------------------------------------------------------------------------|
|--------------------------------------------------------------------------|
|--------------------------------------------------------------------------|
|--5~-----8/5-7/5-5/7------------------------------------------------------|
|--5~----------------------------------------------------------------------|
|--5~----------------------------------------------------------------------|


VERSE:

Right Speaker-

|--------------------------------------------------------------------------|
|--------------------------------------------------------------------------|
|-----3/5/7-------3/5/7-------3/5/7----------------------------------------|
|--5---------5-5---------5-5---------5-1-3-------(then go back to)---------|
|--5---------5-5---------5-5---------5-1-3---------beginning, play 4x)-----|
|--5---------5-5---------5-5---------5-1-3---------------------------------|


Left Speaker-

|--------------------------------------------------------------------------|
|--------------------------------------------------------------------------|
|--------------------------------------------------------------------------|
|--5--5/7/8--5-5--5/7/8--5-5--5/7/8--5-1-3-------(then go back to)---------|
|--5---------5-5---------5-5---------5-1-3---------beginning, play 4x)-----|
|--5---------5-5---------5-5---------5-1-3---------------------------------|


PRE-CHORUS:

Right Speaker-

|--------------------------------------------------------------------------|
|--------------------------------------------------------------------------|
|--3---5---7---5--8/7----3---5---7---5-------------------------------------|
|--x---x---x---x--x/x----x---x---x---x---(figure out strumming, not hard)--|
|--1---3---5---3--6/5----1---3---5---3-------------------------------------|
|--------------------------------------------------------------------------|


Left Speaker

|--------------------------------------------------------------------------|
|--------------------------------------------------------------------------|
|--------------------------------------------------------------------------|
|--1----3--------1----3----------------------------------------------------|
|--1----3--------1----3-----(figure out strumming, not hard)---------------|
|--1----3--------1----3----------------------------------------------------|


CHORUS:

Right Speaker-

|--------------------------------------------------------------------------|
|--------------------------------------------------------------------------|
|--3---8---7---5---8-7-----------------------------------------------------|
|--x---x---x---x---x-x------(figure out strumming, again, not hard)--------|
|--1---6---5---3---6-5----------------------(*x2*)-------------------------|
|--------------------------------------------------------------------------|


Left Speaker-

|--------------------------------------------------------------------------|
|--------------------------------------------------------------------------|
|--7-------3-----------(figure out strumming, not hard)--------------------|
|--8---1---3---3---------------(*x2*)--------------------------------------|
|--5---1---1---3-----------------------------------------------------------|
|--5---1-------3-----------------------------------------------------------|


*Both Guitars play Verse again (*But only play 2x instead of 4x*)
*Both Guitars play Pre-Chorus again 
*Both Guitars play Chorus again


BRIDGE (Part One):

Both Guitars (Same during Part One)-


|--------------------------------------------------------------------------|
|--------------------------------------------------------------------------|
|--------------------10~--10~----------------------------------------------|
|--1~----3~----0~-----8~---7~-----------------(*x2*)-----------------------|
|--1~----3~----0~-----8~---7~----------------------------------------------|
|--1~----3~----0~-----8~---7~----------------------------------------------|


BRIDGE (Part Two):

Guitar 1-

|--------------------------------------------------------------------------|
|--------------------------------------------------------------------------|
|--3---5---7---8--7--------------------------------------------------------|
|--x---x---x---x--x---(figure out strumming, not hard)---------------------|
|--1---3---5---6--5-----------(x2, 2nd time with distortion)---------------|
|--------------------------------------------------------------------------|


Guitar 2-

|--------------------------------------------------------------------------|
|-----------------------------------(figure out strumming)-----------------|
|--------------------------------------------------------------------------|
|--1---3---0---8--7--------1---3---0---8--7--------------------------------|
|--1---3---0---8--7--------1---3---0---8--7--------------------------------|
|--1---3---0---8--7--------1---3---0---8--7--------------------------------|
   .   .   .   .  .        .   .   .


CHORUS (Slightly Different):

Guitar 1-

|--------------------------------------------------------------------------|
|--------------------------------------------------------------------------|
|--3---8---7-7-----------5---8-7-------------------------------------------|
|--x---x---x-x--*BREAK*--x---x-x---(then play normal Chorus, only 1x)------|
|--1---6---5-5-----------3---6-5-----(figure out strumming again)----------|
|--------------------------------------------------------------------------|


Guitar 2-

|--------------------------------------------------------------------------|
|--------------------------------------------------------------------------|
|--7-------3-3--------------(then play normal Chrous, only 1x)-------------|
|--8---1---3-3--*BREAK*--3----(figure out strumming again)-----------------|
|--5---1---1-1-----------3-------------------------------------------------|
|--5---1-----------------3-------------------------------------------------|


OUTRO:

Both Guitars (Same)-

|--------------------------------------------------------------------------|
|--------------------------------------------------------------------------|
|--------------------------------------------------------------------------|
|--5----5-5----5-5----5-1-3-5-5---(figure out strumming, last time!)-------|
|--5----5-5----5-5----5-1-3-5-5--------------------------------------------|
|--5----5-5----5-5----5-1-3-5-5--------------------------------------------|



AND THERE YA GO!  Let me know what ya think, and enjoy the tab!  Thanks!
Tap to rate this tab
# A B C D E F G H I J K L M N O P Q R S T U V W X Y Z