Song name
# A B C D E F G H I J K L M N O P Q R S T U V W X Y Z

Senses Fail - Lady In A Blue Dress Acoustic tab

                           *LADY IN A BLUE*
                            *SENSES FAIL*

 I updated this tab so it should sound a hell of a lot better than before. The 
is no where near exact, which is why I put the lyrics above certain sections so you have a rough 
of when to play everything.
I didn't do this for GUITAR II because its easy to figure out timing/strumming for that.

(BY THE WAY) If there is more than one lyric section over the other, that means he says 
the next time through.


                           COMMENT AND RATE

Tabbed by Joe Bieke


GUITAR I:Lead  (D A D G B e)
GUITAR II:Rhythm  (D A D G B e)

             +------------------------+
             +         LEGEND         +
             +------------------------+
              h - Hammer-on
              \ - Slide
              x - Mute String
              ~ - Let Note(s) Ring


                          +----------------------------------------------+
          +---------------+----------------------+-----------------------+
          +---------------+UPDATED JUNE 12th 2008+-----------------------+
          +---------------+----------------------+-----------------------+
          +-------------- Re-Tabbed The ENTIRE SONG ---------------------+
          +---------------+----------------------+-----------------------+
          +---------------+---- Added Lyrics ----+-----------------------+
                          +----------------------------------------------+


============================================================================
================================GUITAR I====================================
============================================================================


---------------------------------INTRO--------------------------------


 Do this whole thing X3
|--5-5-5-5-5-5-5-5-5-5-5----------------------------------------------|
|--0-0-0-0-0-0-0-0-0-0-0-5-5-5-5-5-5-5-5-5-5-5-7-7-7-7-7-7-7-7-7-7-7--|
|------------------------0-0-0-0-0-0-0-0-0-0-0-0-0-0-0-0-0-0-0-0-0-0--|
|---------------------------------------------------------------------|
|---------------------------------------------------------------------|
|---------------------------------------------------------------------|
 Continued
|-------------|
|--5-5-5-5-5--|
|--0-0-0-0-0--|
|-------------|
|-------------|
|-------------|

------------------------------VERSE THING--------------------------------

     Just Like...             You've Got...
     Hairspray...             Perfume...

|--5--5--5--5--5--5--------------------------------------|
|--0--0--0--0--0--0-5-5-5-5-5-7--7--7--7--7--7--5-5-5-5--|
|-------------------0-0-0-0-0-0--0--0--0--0--0--0-0-0-0--|
|--------------------------------------------------------| X2
|--------------------------------------------------------|
|--------------------------------------------------------|

   I'll Put...              You've Got So Much....
   You Want...              Never Have...

|--5-5-5-5-5-5--------------------------------------|
|--0-0-0-0-0-0-5-5-5-5-5-5-7-7-7-7-7-7-7-5-5-5-5-5--|
|--------------0-0-0-0-0-0-0-0-0-0-0-0-0-0-0-0-0-0--|
|---------------------------------------------------| X2
|---------------------------------------------------|
|---------------------------------------------------|

----------------------------CHORUS-----------------------------------------

                   REPEAT WHOLE THING X2

   You Say..               For Yourself...
   Cause All...            Insecure...

|--5------------------|   |-------------------|
|----7---5h8-8---7----|   |--7----------------|
|------7-------7---7--|X3 |----7--7--7--7--7--|
|---------------------|   |-------------------|
|---------------------|   |-------------------|
|---------------------|   |-------------------|

---------------------------VERSE THING-------------------------------------


   So You Say...                 You Suffer...
   Black Heart...                Smeared...

|--5--5--5--5--5--5--------------------------------------|
|--0--0--0--0--0--0-5-5-5-5-5-7--7--7--7--7--7--5-5-5-5--|
|-------------------0-0-0-0-0-0--0--0--0--0--0--0-0-0-0--|
|--------------------------------------------------------| X2
|--------------------------------------------------------|
|--------------------------------------------------------|


   You're Points...        To Deal...
   You're Same...          Lines...

|--5-5-5-5-5-5--------------------------------------|
|--0-0-0-0-0-0-5-5-5-5-5-5-7-7-7-7-7-7-7-5-5-5-5-5--|
|--------------0-0-0-0-0-0-0-0-0-0-0-0-0-0-0-0-0-0--|
|---------------------------------------------------| X2
|---------------------------------------------------|
|---------------------------------------------------|

-------------------------------CHORUS--------------------------------------

                   REPEAT WHOLE THING X2

   You Say..               For Yourself...
   Cause All...            Insecure...

|--5------------------|   |-------------------|
|----7---5h8-8---7----|   |--7----------------|
|------7-------7---7--|X3 |----7--7--7--7--7--|
|---------------------|   |-------------------|
|---------------------|   |-------------------|
|---------------------|   |-------------------|


-------------------------VERSE 2-----------------------------------------

  Don't Try...                       Be Cute...
  Cause I...                         You Hate...
  You'd End...                       Stupid Life...
  But You're...                      Spineless...

|--------------------------------------------------------------------------|
|--------------------------------------------------------------------------|
|--11-11-11-11-11-11-11-11-11--11\14--7-7-7-7-7-7-7-7--7-\-12-12-12-12-9-9-|
|--x--x--x--x--x--x--x--x--x---x--x---x-x-x-x-x-x-x-x--x---x--x--x--x--x-x-|
|--9--9--9--9--9--9--9--9--9---9-\12--5-5-5-5-5-5-5-5--5-\-10-10-10-10-7-7-|
|--------------------------------------------------------------------------|

----------------------------VERSE THINGY------------------------------------

   Just Like...             You've Got...
   Hairspray...             Perfume...

|--5-5-5-5-5-5--------------------------------------|
|--0-0-0-0-0-0-5-5-5-5-5-5-7-7-7-7-7-7-7-5-5-5-5-5--|
|--------------0-0-0-0-0-0-0-0-0-0-0-0-0-0-0-0-0-0--|
|---------------------------------------------------| X2
|---------------------------------------------------|
|---------------------------------------------------|

--------------------------ENDING CHORUS--------------------------------------

   You Say...                     That You Want...

|------------------------------------------------------------------------|
|------------------------------------------------------------------------|
|--14-14-14-14-14-14-14-14-14-14-16-16-16-14-14-14-14-14-14-12-12-12-12--|
|--x--x--x--x--x--x--x--x--x--x--x--x--x--x--x--x--x--x--x--x--x--x--x---|
|--12-12-12-12-12-12-12-12-12-12-14-14-14-12-12-12-12-12-12-10-10-10-10--|
|------------------------------------------------------------------------|

   Better...         Get Some...      Yourself...

|-----------------------------------------------------------|
|-----------------------------------------------------------|
|--11-11-11-11-11-11-9--9--9--9--7--7--7--7--7--7--7--7--7--|
|--x--x--x--x--x--x--x--x--x--x--x--x--x--x--x--x--x--x--x--|
|--9--9--9--9--9--9--7--7--7--7--5--5--5--5--5--5--5--5--5--|
|-----------------------------------------------------------|

  Cause All...
  Right Now...
  Lost And...            Insecure....

|--5------------------|
|----7---5h8-8---7----|
|------7-------7---7--|X3
|---------------------|
|---------------------|
|---------------------|

|----------------------------------------------------------|
|--7----------------------------------------5--5--7--7-----|
|----7--7--7--7--7--6--6--6--6--4--4--4--4--------------7~-|
|----------------------------------------------------------|
|----------------------------------------------------------|
|----------------------------------------------------------|


                           COMMENT AND RATE

=============================================================================
=============================GUITAR II=======================================
=============================================================================

-----------------------------INTRO-------------------------------------------

|-----------------------------------------------|
|-----------------------------------------------|
|-----------------------------------------------|
|--9~-----0~-----5~-----0~-----9~-----0~-----5--|
|--9~-----0~-----5~-----0~-----9~-----0~-----5--|
|--9~-----0~-----5~-----0~-----9~-----0~-----5--|

|------------------------------------|
|------------------------------------|
|------------------------------------|
|--9-------0-0-0-0--5--------0-0-0-0-| X2
|--9-(x12--0-0-0-0--5-(X12)--0-0-0-0-|
|--9-------0-0-0-0--5--------0-0-0-0-|


-------------------------VERSE THINGY--------------------------------------

|--------------------------------------------------------------|
|--------------------------------------------------------------|
|--------------------------------------------------------------|
|--9--9--9--9--9--9--00-0-0-0-0--5--5--5--5--5--5--00-0-0-0-0--| X2
|--9--9--9--9--9--9--00-0-0-0-0--5--5--5--5--5--5--00-0-0-0-0--|
|--9--9--9--9--9--9--00-0-0-0-0--5--5--5--5--5--5--00-0-0-0-0--|

|------------------------------------|
|------------------------------------|
|------------------------------------|
|--9-------0-0-0-0--5--------0-0-0-0-|
|--9-(x12--0-0-0-0--5-(X12)--0-0-0-0-|
|--9-------0-0-0-0--5--------0-0-0-0-|

|------------------------------------|
|------------------------------------|
|------------------------------------|
|--9-------0-0-0-0--5--------5-7-7-7-|
|--9-(x12--0-0-0-0--5-(X12)--5-7-7-7-|
|--9-------0-0-0-0--5--------5-7-7-7-|

-------------------------CHORUS---------------------------------------------

                     Do Whole thing Two Times


|---------------------------------------------------------------------------|
|---------------------------------------------------------------------------|
|---------------------------------------------------------------------------|
|--0-----0-----0-----0-----0-7-----7-----7-----7-----7-9-----9-----9-----9--|
|--0-0-0-0-0-0-0-0-0-0-0-0-0-7-7-7-7-7-7-7-7-7-7-7-7-7-9-9-9-9-9-9-9-9-9-9--|
|--0-0-0-0-0-0-0-0-0-0-0-0-0-7-7-7-7-7-7-7-7-7-7-7-7-7-9-9-9-9-9-9-9-9-9-9--|

|----------------------------------|
|----------------------------------|
|----------------------------------|
|-----9-3-----3-----3-----3-----3--|
|-9-9-9-3-3-3-3-3-3-3-3-3-3-3-3-3--|
|-9-9-9-3-3-3-3-3-3-3-3-3-3-3-3-3--|

-----------------------------------------------------------------------------

                Do VERSE THINGY agian then do the CHORUS again then do....

--------------------------------VERSE 2--------------------------------------

|------------------------|
|------------------------|
|------------------------|
|--9-------9-4--5--------| X5
|--9-(x11)-9-4--5-(x15)--|
|--9-------9-4--5--------|

                Next do, VERSE THINGY, Chorus then end with...


|-------------------------------|
|-------------------------------|
|-------------------------------|
|--3-----3-----3-----3-5-5-5-0~-|
|--3-3-3-3-3-3-3-3-3-3-5-5-5-0~-|
|--3-3-3-3-3-3-3-3-3-3-5-5-5-0~-|


                           COMMENT AND RATE

============================================================================
===============================LYRICS=======================================
============================================================================
                            www.plyrics.com

Just like the lady in a blue dress,
You've got cigarettes on your breath.
Hair spray and some cheap perfume.
I'll put a little sour in your sweet,
You've got so much fucking tongue in cheek.
You want what you could never have.

You say that you want respect
Well then you better get some for yourself.
'Cause all that I see right now,
Is someone who's lost and insecure.

So you say that I am rated X,
You suffer from the lack of sex.
Black heart and your lipstick smeared.
Your points are trite and I'm too sober
To deal with you running over
Your same pathetic cliche lines.

You say that you want respect
Well then you better get some for yourself.
'Cause all that I see right now,
Is someone who's lost and insecure.

Don't try to be cute with me,
'Cause I know you hate yourself
And you'd end your stupid life now
But you're too spineless

Just like the lady in a blue dress
You've got cigarettes on your breath,
Hair spray and some cheap perfume.

You say that you want respect
Well then you better get some for yourself.
'Cause all that I see right now,
Is someone who's lost and insecure.
Tap to rate this tab
 
# A B C D E F G H I J K L M N O P Q R S T U V W X Y Z