Guitaretab - guitar tabs
Song name
# A B C D E F G H I J K L M N O P Q R S T U V W X Y Z

Senses Fail - Cant Be Saved tab

Canít Be Saved
Senses Fail
Still Searching
2006

Intro 
E[------------5-7-5---------------------------------------]
B[--7b-6-6-7-8-------8-7-----------7h8-7p8h7h8p7----------]
G[--------------------------x3----------------------------]
D[--------------------------------------------------------]
A[--------------------------------------------------------]
D[--------------------------------------------------------]

Verse 1A (x2)
E[--------------------------------------------------------]
B[--------------------------------------------------------]
G[--------------------------------------------------------]
D[-----------------5-5-5-5-5-5-5-5------------------------]
A[---------------------------------5-5-5-5-5-5-5-5-5-5-5-5]
D[-9-9-9-9-9-9-9-9----------------------------------------]
                5ís on A string are played 16 times        

Verse 1B
E[--------------------------------------------------------]
B[--------------------------------------------------------]
G[--------------------------------------------------------]
D[------------6-7-----------------7-----7-----------------]
A[-4h5p4h5h6--6-7-----------------7-----7-----------------]
D[------------6-7-7-7-7-7-7-7-000-7-0-0-7-----------------]
                  . . . . . . ...   . .
E[--------------------------------------------------------]
B[--------------------------------------------------------]
G[--------------------------------------------------------]
D[-3-----------------3-----3-5-----------------5-----5----]
A[-3-----------------3-----3-5-----------------5-----5----]
D[-3-3-3-3-3-3-3-0-0-3-0-0-3-5-5-5-5-5-5-5-0-0-5-0-0-5----]
     . . . . . . . .   . .     . . . . . . . .   . .
E[--------------------------------------------------------]
B[--------------------------------------------------------]
G[--------------------------------------------------------]
D[-0-------------0-0-0-0-0-0-0-0--------------------------]
A[-0-------------0-0-0-0-0-0-0-0--------------------------]
D[-0-0-0-0-0-0-0-0-0-0-0-0-0-0-0--------------------------]
     . . . . . .



Chorus x3 (same as intro but octave higher)
E[-------17-19-17--------]
B[-19-20----------20-19--]
G[-----------------------]
D[-----------------------]
A[-----------------------]
D[-----------------------]

Chorus Ending
E[-----------------------]
B[-19h20p19h20p19--------]
G[-----------------------]
D[-----------------------]
A[-----------------------]
D[-----------------------] whole chorus w/ending x2

Verse 2A: Repeat Verse 1A
[ Tab from: http://www.guitaretab.com/s/senses-fail/77997.html ]
Verse 2B:
E[--------------------------------------------------------]
B[--------------------------------------------------------]
G[--------------------------------------------------------]
D[-6-7-----------------7-----7-3-----------------3-----3--]
A[-6-7-----------------7-----7-3-----------------3-----3--]
D[-6-7-7-7-7-7-7-7-0-0-7-0-0-7-3-3-3-3-3-3-3-0-0-3-0-0-3--]
       . . . . . . . .   . .     . . . . . . . .   . .
E[--------------------------------------------------------]
B[--------------------------------------------------------]
G[--------------------------------------------------------]
D[-3h4-----5h6-----7h8-----9h10---------------------------]
A[-3h4-----5h6-----7h8-----9h10---------------------------]
D[-3h4-0-0-5h6-0-0-7h8-0-0-9h10---------------------------]
       . .     . .     . .  
E[--------------------------------------------------------]
B[--------------------------------------------------------]
G[--------------------------------------------------------]
D[-----0-------------0-0-0-0-0-0-0-0----------------------]
A[-----0-------------0-0-0-0-0-0-0-0----------------------]
D[-0-0-0-0-0-0-0-0-0-0-0-0-0-0-0-0-0----------------------]
   . .   . . . . . .

Repeat Chorus





Bridge 
E[---------------------------------------------------------
B[---------------------------------------------------------
G[-6-6-6-6-6--6-6-6-6-6-6-6-6-6-6--------------------------
D[-x-x-x-x-x--x-x-x-x-x-x-x-x-x-x-5--4-0-4-0-----4-0-4-0---
A[-4-4-4-4-4--4-4-4-4-4-4-4-4-4-4-5--4-0-4-0-----4-0-4-0---
D[--------------------------------5--4-0-4-0-000-4-0-4-0000
                                             ...        ...
Do that 4 times but after octaves on 4th time go:
E[--------------------------------------------------------]
B[--------------------------------------------------------]
G[--------------------------------------------------------]
D[--------------------------------------------------------]
A[--------------------------------------------------------]
D[-0h4h5-0h4h5-0h4h5-0h4h5-0h2h4p2------------------------]
                 X2 then:

E[--------------------------------------------------------]    
B[--------------------------------------------------------]
G[--------------------------------------------------------]
D[-0h7h9-0h7h9-0h7h9-0h7h9-0h4h6p4ó-----------------------]
A[--------------------------------------------------------]
D[--------------------------------------------------------]
                           X2

Chorus:
E[--------------------------------------------------------]
B[--------------------------------------------------------]
G[--------------------------------------------------------]
D[-4-4-4-4-4---2--0-0-0-2-0-0-2-0-0-2-2-------------------]
A[-4-4-4-4-4---2--0-0-0-2-0-0-2-0-0-2-2-------------------]
D[-4-4-4-4-4---2--0-0-0-2-0-0-2-0-0-2-2-------------------]
                  . . .   . .   . .
Repeat Chorus riff for remainder of chorus

Outtro:
E[--------------------------------------------------------]
B[--------------------------------------------------------]
G[--------------------------------------------------------]
D[-9------7-----------------------------------------------]
A[-9-(x8)-7-(x8)------------------------------------------]
D[-9------7------0h4h5-0h4h5-0h4h5-0h4h5-0h2h4p2----------]
         X4 but on 4th time instead of hammer-on bit do this:



E[-------------------------------------------------------]
B[-------------------------------------------------------]
G[--------------------------------6----------------------]
D[-x------4-0-4-0-----4-0-4-0-----x----------------------]
A[-x-(x8)-4-0-4-0-----4-0-4-0-----4----------------------]
D[-x------4-0-4-0-000-4-0-4-0-000------------------------]
                  ...         ...
X2 but on last time play last triplet as a chord.

LEGEND:
.= palm mute
x= mute string
h= hammer on
p= pull off


Related for Cant Be Saved tab